  0
SECTION
  2
HEADER
  9
$ACADVER
  1
AC1015
  9
$ACADMAINTVER
 70
     6
  9
$DWGCODEPAGE
  3
ANSI_1252
  9
$INSBASE
 10
0.0
 20
0.0
 30
0.0
  9
$EXTMIN
 10
0.0
 20
0.0
 30
0.0
  9
$EXTMAX
 10
431.8
 20
279.4
 30
0.0
  9
$LIMMIN
 10
0.0
 20
0.0
  9
$LIMMAX
 10
431.8
 20
279.4
  9
$ORTHOMODE
 70
     0
  9
$REGENMODE
 70
     1
  9
$FILLMODE
 70
     1
  9
$QTEXTMODE
 70
     0
  9
$MIRRTEXT
 70
     1
  9
$LTSCALE
 40
1.0
  9
$ATTMODE
 70
     1
  9
$TEXTSIZE
 40
4.9388888889
  9
$TRACEWID
 40
1.0
  9
$TEXTSTYLE
  7
Standard
  9
$CLAYER
  8
0
  9
$CELTYPE
  6
ByLayer
  9
$CECOLOR
 62
   256
  9
$CELTSCALE
 40
1.0
  9
$DISPSILH
 70
     0
  9
$DIMSCALE
 40
1.0
  9
$DIMASZ
 40
5.1366373698
  9
$DIMEXO
 40
2.0
  9
$DIMDLI
 40
3.75
  9
$DIMRND
 40
0.0
  9
$DIMDLE
 40
0.0
  9
$DIMEXE
 40
2.0
  9
$DIMTP
 40
0.0
  9
$DIMTM
 40
0.0
  9
$DIMTXT
 40
7.0555555556
  9
$DIMCEN
 40
2.5
  9
$DIMTSZ
 40
0.0
  9
$DIMTOL
 70
     0
  9
$DIMLIM
 70
     0
  9
$DIMTIH
 70
     1
  9
$DIMTOH
 70
     1
  9
$DIMSE1
 70
     0
  9
$DIMSE2
 70
     0
  9
$DIMTAD
 70
     1
  9
$DIMZIN
 70
     0
  9
$DIMBLK
  1

  9
$DIMASO
 70
     1
  9
$DIMSHO
 70
     1
  9
$DIMPOST
  1

  9
$DIMAPOST
  1

  9
$DIMALT
 70
     0
  9
$DIMALTD
 70
     3
  9
$DIMALTF
 40
0.0393700787
  9
$DIMLFAC
 40
1.0
  9
$DIMTOFL
 70
     1
  9
$DIMTVP
 40
0.0
  9
$DIMTIX
 70
     0
  9
$DIMSOXD
 70
     0
  9
$DIMSAH
 70
     0
  9
$DIMBLK1
  1

  9
$DIMBLK2
  1

  9
$DIMSTYLE
  2
ISO-25
  9
$DIMCLRD
 70
     0
  9
$DIMCLRE
 70
     0
  9
$DIMCLRT
 70
     0
  9
$DIMTFAC
 40
1.0
  9
$DIMGAP
 40
2.0
  9
$DIMJUST
 70
     0
  9
$DIMSD1
 70
     0
  9
$DIMSD2
 70
     0
  9
$DIMTOLJ
 70
     0
  9
$DIMTZIN
 70
     0
  9
$DIMALTZ
 70
     0
  9
$DIMALTTZ
 70
     0
  9
$DIMUPT
 70
     0
  9
$DIMDEC
 70
     2
  9
$DIMTDEC
 70
     2
  9
$DIMALTU
 70
     2
  9
$DIMALTTD
 70
     3
  9
$DIMTXSTY
  7
Standard
  9
$DIMAUNIT
 70
     0
  9
$DIMADEC
 70
     2
  9
$DIMALTRND
 40
0.0
  9
$DIMAZIN
 70
     0
  9
$DIMDSEP
 70
    44
  9
$DIMATFIT
 70
     3
  9
$DIMFRAC
 70
     0
  9
$DIMLDRBLK
  1

  9
$DIMLUNIT
 70
     2
  9
$DIMLWD
 70
    -2
  9
$DIMLWE
 70
    -2
  9
$DIMTMOVE
 70
     0
  9
$LUNITS
 70
     2
  9
$LUPREC
 70
     2
  9
$SKETCHINC
 40
1.0
  9
$FILLETRAD
 40
10.0
  9
$AUNITS
 70
     0
  9
$AUPREC
 70
     2
  9
$MENU
  1
.
  9
$ELEVATION
 40
0.0
  9
$PELEVATION
 40
0.0
  9
$THICKNESS
 40
0.0
  9
$LIMCHECK
 70
     0
  9
$CHAMFERA
 40
0.0
  9
$CHAMFERB
 40
0.0
  9
$CHAMFERC
 40
0.0
  9
$CHAMFERD
 40
0.0
  9
$SKPOLY
 70
     0
  9
$TDCREATE
 40
2457688.697273032
  9
$TDUCREATE
 40
2457688.613939699
  9
$TDUPDATE
 40
2457688.697273611
  9
$TDUUPDATE
 40
2457688.613940278
  9
$TDINDWG
 40
0.0000000116
  9
$TDUSRTIMER
 40
0.0000000116
  9
$USRTIMER
 70
     1
  9
$ANGBASE
 50
0.0
  9
$ANGDIR
 70
     0
  9
$PDMODE
 70
     0
  9
$PDSIZE
 40
-1.0
  9
$PLINEWID
 40
0.0
  9
$SPLFRAME
 70
     0
  9
$SPLINETYPE
 70
     6
  9
$SPLINESEGS
 70
     8
  9
$HANDSEED
  5
4AD
  9
$SURFTAB1
 70
     6
  9
$SURFTAB2
 70
     6
  9
$SURFTYPE
 70
     6
  9
$SURFU
 70
     6
  9
$SURFV
 70
     6
  9
$UCSBASE
  2

  9
$UCSNAME
  2

  9
$UCSORG
 10
0.0
 20
0.0
 30
0.0
  9
$UCSXDIR
 10
1.0
 20
0.0
 30
0.0
  9
$UCSYDIR
 10
0.0
 20
1.0
 30
0.0
  9
$UCSORTHOREF
  2

  9
$UCSORTHOVIEW
 70
     0
  9
$UCSORGTOP
 10
0.0
 20
0.0
 30
0.0
  9
$UCSORGBOTTOM
 10
0.0
 20
0.0
 30
0.0
  9
$UCSORGLEFT
 10
0.0
 20
0.0
 30
0.0
  9
$UCSORGRIGHT
 10
0.0
 20
0.0
 30
0.0
  9
$UCSORGFRONT
 10
0.0
 20
0.0
 30
0.0
  9
$UCSORGBACK
 10
0.0
 20
0.0
 30
0.0
  9
$PUCSBASE
  2

  9
$PUCSNAME
  2

  9
$PUCSORG
 10
0.0
 20
0.0
 30
0.0
  9
$PUCSXDIR
 10
1.0
 20
0.0
 30
0.0
  9
$PUCSYDIR
 10
0.0
 20
1.0
 30
0.0
  9
$PUCSORTHOREF
  2

  9
$PUCSORTHOVIEW
 70
     0
  9
$PUCSORGTOP
 10
0.0
 20
0.0
 30
0.0
  9
$PUCSORGBOTTOM
 10
0.0
 20
0.0
 30
0.0
  9
$PUCSORGLEFT
 10
0.0
 20
0.0
 30
0.0
  9
$PUCSORGRIGHT
 10
0.0
 20
0.0
 30
0.0
  9
$PUCSORGFRONT
 10
0.0
 20
0.0
 30
0.0
  9
$PUCSORGBACK
 10
0.0
 20
0.0
 30
0.0
  9
$USERI1
 70
     0
  9
$USERI2
 70
     0
  9
$USERI3
 70
     0
  9
$USERI4
 70
     0
  9
$USERI5
 70
     0
  9
$USERR1
 40
0.0
  9
$USERR2
 40
0.0
  9
$USERR3
 40
0.0
  9
$USERR4
 40
0.0
  9
$USERR5
 40
0.0
  9
$WORLDVIEW
 70
     1
  9
$SHADEDGE
 70
     3
  9
$SHADEDIF
 70
    70
  9
$TILEMODE
 70
     1
  9
$MAXACTVP
 70
    64
  9
$PINSBASE
 10
0.0
 20
0.0
 30
0.0
  9
$PLIMCHECK
 70
     0
  9
$PEXTMIN
 10
1.0000000000E+20
 20
1.0000000000E+20
 30
1.0000000000E+20
  9
$PEXTMAX
 10
-1.0000000000E+20
 20
-1.0000000000E+20
 30
-1.0000000000E+20
  9
$PLIMMIN
 10
0.0
 20
0.0
  9
$PLIMMAX
 10
420.0
 20
297.0
  9
$UNITMODE
 70
     0
  9
$VISRETAIN
 70
     1
  9
$PLINEGEN
 70
     0
  9
$PSLTSCALE
 70
     1
  9
$TREEDEPTH
 70
  3020
  9
$CMLSTYLE
  2
Standard
  9
$CMLJUST
 70
     0
  9
$CMLSCALE
 40
20.0
  9
$PROXYGRAPHICS
 70
     1
  9
$MEASUREMENT
 70
     1
  9
$CELWEIGHT
370
    -1
  9
$ENDCAPS
280
     0
  9
$JOINSTYLE
280
     0
  9
$LWDISPLAY
290
     1
  9
$INSUNITS
 70
     4
  9
$HYPERLINKBASE
  1

  9
$STYLESHEET
  1

  9
$XEDIT
290
     1
  9
$CEPSNTYPE
380
     0
  9
$PSTYLEMODE
290
     1
  9
$FINGERPRINTGUID
  2
{240F0A5F-3D9B-48AB-8D52-71E712C16D82}
  9
$VERSIONGUID
  2
{FAEB1C32-E019-11D5-929B-00C0DF256EC4}
  9
$EXTNAMES
290
     1
  9
$PSVPSCALE
 40
0.0
  9
$OLESTARTUP
290
     0
  0
ENDSEC
  0
SECTION
  2
CLASSES
  0
CLASS
  1
ACDBDICTIONARYWDFLT
  2
AcDbDictionaryWithDefault
  3
ObjectDBX Classes
 90
        0
280
     0
281
     0
  0
CLASS
  1
VISUALSTYLE
  2
AcDbVisualStyle
  3
ObjectDBX Classes
 90
     4095
280
     0
281
     0
  0
CLASS
  1
MATERIAL
  2
AcDbMaterial
  3
ObjectDBX Classes
 90
     1153
280
     0
281
     0
  0
CLASS
  1
SCALE
  2
AcDbScale
  3
ObjectDBX Classes
 90
     1153
280
     0
281
     0
  0
CLASS
  1
TABLESTYLE
  2
AcDbTableStyle
  3
ObjectDBX Classes
 90
     4095
280
     0
281
     0
  0
CLASS
  1
MLEADERSTYLE
  2
AcDbMLeaderStyle
  3
ACDB_MLEADERSTYLE_CLASS
 90
     4095
280
     0
281
     0
  0
CLASS
  1
SUN
  2
AcDbSun
  3
SCENEOE
 90
     1153
280
     0
281
     0
  0
CLASS
  1
ACDBPLACEHOLDER
  2
AcDbPlaceHolder
  3
ObjectDBX Classes
 90
        0
280
     0
281
     0
  0
CLASS
  1
LAYOUT
  2
AcDbLayout
  3
ObjectDBX Classes
 90
        0
280
     0
281
     0
  0
ENDSEC
  0
SECTION
  2
TABLES
  0
TABLE
  2
VPORT
  5
8
330
0
100
AcDbSymbolTable
 70
     1
  0
VPORT
  5
29
330
8
100
AcDbSymbolTableRecord
100
AcDbViewportTableRecord
  2
*Active
 70
     0
 10
0.0
 20
0.0
 11
1.0
 21
1.0
 12
215.9
 22
139.7
 13
0.0
 23
0.0
 14
10.0
 24
10.0
 15
10.0
 25
10.0
 16
0.0
 26
0.0
 36
1.0
 17
0.0
 27
0.0
 37
0.0
 40
279.4
 41
1.5454545455
 42
50.0
 43
0.0
 44
0.0
 50
0.0
 51
0.0
 71
     0
 72
  2000
 73
     1
 74
     3
 75
     0
 76
     0
 77
     0
 78
     0
281
     0
 65
     1
110
0.0
120
0.0
130
0.0
111
1.0
121
0.0
131
0.0
112
0.0
122
1.0
132
0.0
 79
     0
146
0.0
  0
ENDTAB
  0
TABLE
  2
LTYPE
  5
5
330
0
100
AcDbSymbolTable
 70
     6
  0
LTYPE
  5
14
330
5
100
AcDbSymbolTableRecord
100
AcDbLinetypeTableRecord
  2
ByBlock
 70
     0
  3

 72
    65
 73
     0
 40
0.0
  0
LTYPE
  5
15
330
5
100
AcDbSymbolTableRecord
100
AcDbLinetypeTableRecord
  2
ByLayer
 70
     0
  3

 72
    65
 73
     0
 40
0.0
  0
LTYPE
  5
16
330
5
100
AcDbSymbolTableRecord
100
AcDbLinetypeTableRecord
  2
Continuous
 70
     0
  3
Solid line
 72
    65
 73
     0
 40
0.0
  0
LTYPE
  5
6E
330
5
100
AcDbSymbolTableRecord
100
AcDbLinetypeTableRecord
  2
HIDDEN
 70
     0
  3
Hidden __ __ __ __ __ __ __ __ __ __ __ __ __ __
 72
    65
 73
     2
 40
1.905
 49
1.27
 74
     0
 49
-0.635
 74
     0
  0
LTYPE
  5
6F
330
5
100
AcDbSymbolTableRecord
100
AcDbLinetypeTableRecord
  2
PHANTOM
 70
     0
  3
Phantom ______  __  __  ______  __  __  ______
 72
    65
 73
     6
 40
12.7
 49
6.35
 74
     0
 49
-1.27
 74
     0
 49
1.27
 74
     0
 49
-1.27
 74
     0
 49
1.27
 74
     0
 49
-1.27
 74
     0
  0
LTYPE
  5
70
330
5
100
AcDbSymbolTableRecord
100
AcDbLinetypeTableRecord
  2
CENTER
 70
     0
  3
Center ____ _ ____ _ ____ _ ____ _ ____ _ ____
 72
    65
 73
     4
 40
10.16
 49
6.35
 74
     0
 49
-1.27
 74
     0
 49
1.27
 74
     0
 49
-1.27
 74
     0
  0
LTYPE
  5
71
330
5
100
AcDbSymbolTableRecord
100
AcDbLinetypeTableRecord
  2
CENTERX2
 70
     0
  3
Center (2x) ________  __  ________  __  _____
 72
    65
 73
     4
 40
20.32
 49
12.7
 74
     0
 49
-2.54
 74
     0
 49
2.54
 74
     0
 49
-2.54
 74
     0
  0
LTYPE
  5
72
330
5
100
AcDbSymbolTableRecord
100
AcDbLinetypeTableRecord
  2
DOT2
 70
     0
  3
Dot (.5x) ........................................
 72
    65
 73
     2
 40
0.635
 49
0.0
 74
     0
 49
-0.635
 74
     0
  0
ENDTAB
  0
TABLE
  2
LAYER
  5
2
330
0
100
AcDbSymbolTable
 70
     3
  0
LAYER
  5
10
330
2
100
AcDbSymbolTableRecord
100
AcDbLayerTableRecord
  2
0
 70
     0
 62
     7
  6
Continuous
370
    -3
390
F
  0
LAYER
  5
73
330
2
100
AcDbSymbolTableRecord
100
AcDbLayerTableRecord
  2
SLD-0
 70
     0
 62
   179
  6
Continuous
370
    -3
390
F
  0
LAYER
  5
74
330
2
100
AcDbSymbolTableRecord
100
AcDbLayerTableRecord
  2
EBENE_1
 70
     0
 62
   179
  6
Continuous
370
    -3
390
F
  0
ENDTAB
  0
TABLE
  2
STYLE
  5
3
330
0
100
AcDbSymbolTable
 70
     3
  0
STYLE
  5
11
330
3
100
AcDbSymbolTableRecord
100
AcDbTextStyleTableRecord
  2
Standard
 70
     0
 40
0.0
 41
1.0
 50
0.0
 71
     0
 42
4.9388888889
  3
txt
  4

  0
STYLE
  5
96
330
3
100
AcDbSymbolTableRecord
100
AcDbTextStyleTableRecord
  2
SLDTEXTSTYLE0
 70
     0
 40
0.0
 41
0.605
 50
0.0
 71
     0
 42
4.9388888889
  3
TXT
  4

  0
STYLE
  5
16E
330
3
100
AcDbSymbolTableRecord
100
AcDbTextStyleTableRecord
  2
SLDTEXTSTYLE1
 70
     0
 40
0.0
 41
0.75
 50
0.0
 71
     0
 42
4.9388888889
  3
TXT
  4

  0
ENDTAB
  0
TABLE
  2
VIEW
  5
6
330
0
100
AcDbSymbolTable
 70
     0
  0
ENDTAB
  0
TABLE
  2
UCS
  5
7
330
0
100
AcDbSymbolTable
 70
     0
  0
ENDTAB
  0
TABLE
  2
APPID
  5
9
330
0
100
AcDbSymbolTable
 70
     1
  0
APPID
  5
12
330
9
100
AcDbSymbolTableRecord
100
AcDbRegAppTableRecord
  2
ACAD
 70
     0
  0
ENDTAB
  0
TABLE
  2
DIMSTYLE
  5
A
330
0
100
AcDbSymbolTable
 70
     1
100
AcDbDimStyleTable
  0
DIMSTYLE
105
27
330
A
100
AcDbSymbolTableRecord
100
AcDbDimStyleTableRecord
  2
ISO-25
 70
     0
 41
2.5
 42
0.625
 43
3.75
 44
1.25
 73
     0
 74
     0
 77
     1
 78
     8
140
2.5
141
2.5
143
0.0393700787
147
0.625
171
     3
172
     1
178
     0
271
     2
272
     2
274
     3
278
    44
283
     0
284
     8
340
11
  0
ENDTAB
  0
TABLE
  2
BLOCK_RECORD
  5
1
330
0
100
AcDbSymbolTable
 70
    25
  0
BLOCK_RECORD
  5
1F
330
1
100
AcDbSymbolTableRecord
100
AcDbBlockTableRecord
  2
*Model_Space
340
22
  0
BLOCK_RECORD
  5
1B
330
1
100
AcDbSymbolTableRecord
100
AcDbBlockTableRecord
  2
*Paper_Space
340
1E
  0
BLOCK_RECORD
  5
23
330
1
100
AcDbSymbolTableRecord
100
AcDbBlockTableRecord
  2
*Paper_Space0
340
26
  0
BLOCK_RECORD
  5
75
330
1
100
AcDbSymbolTableRecord
100
AcDbBlockTableRecord
  2
Block1
340
0
102
{BLKREFS
331
16D
102
}
  0
BLOCK_RECORD
  5
8C
330
1
100
AcDbSymbolTableRecord
100
AcDbBlockTableRecord
  2
SW_BLOCK_DIMENSION_0
340
0
102
{BLKREFS
331
98
102
}
  0
BLOCK_RECORD
  5
8F
330
1
100
AcDbSymbolTableRecord
100
AcDbBlockTableRecord
  2
_ORIGIN
340
0
102
{BLKREFS
331
94
331
104
102
}
  0
BLOCK_RECORD
  5
99
330
1
100
AcDbSymbolTableRecord
100
AcDbBlockTableRecord
  2
SW_BLOCK_DIMENSION_1
340
0
102
{BLKREFS
331
A0
102
}
  0
BLOCK_RECORD
  5
A1
330
1
100
AcDbSymbolTableRecord
100
AcDbBlockTableRecord
  2
SW_BLOCK_DIMENSION_2
340
0
102
{BLKREFS
331
A8
102
}
  0
BLOCK_RECORD
  5
A9
330
1
100
AcDbSymbolTableRecord
100
AcDbBlockTableRecord
  2
SW_BLOCK_DIMENSION_3
340
0
102
{BLKREFS
331
B0
102
}
  0
BLOCK_RECORD
  5
B1
330
1
100
AcDbSymbolTableRecord
100
AcDbBlockTableRecord
  2
SW_BLOCK_DIMENSION_4
340
0
102
{BLKREFS
331
B8
102
}
  0
BLOCK_RECORD
  5
B9
330
1
100
AcDbSymbolTableRecord
100
AcDbBlockTableRecord
  2
SW_BLOCK_DIMENSION_5
340
0
102
{BLKREFS
331
C0
102
}
  0
BLOCK_RECORD
  5
C1
330
1
100
AcDbSymbolTableRecord
100
AcDbBlockTableRecord
  2
SW_BLOCK_DIMENSION_6
340
0
102
{BLKREFS
331
C8
102
}
  0
BLOCK_RECORD
  5
C9
330
1
100
AcDbSymbolTableRecord
100
AcDbBlockTableRecord
  2
SW_BLOCK_DIMENSION_7
340
0
102
{BLKREFS
331
D0
102
}
  0
BLOCK_RECORD
  5
D1
330
1
100
AcDbSymbolTableRecord
100
AcDbBlockTableRecord
  2
SW_BLOCK_DIMENSION_8
340
0
102
{BLKREFS
331
D8
102
}
  0
BLOCK_RECORD
  5
D9
330
1
100
AcDbSymbolTableRecord
100
AcDbBlockTableRecord
  2
SW_BLOCK_DIMENSION_9
340
0
102
{BLKREFS
331
E0
102
}
  0
BLOCK_RECORD
  5
E1
330
1
100
AcDbSymbolTableRecord
100
AcDbBlockTableRecord
  2
SW_BLOCK_DIMENSION_10
340
0
102
{BLKREFS
331
E8
102
}
  0
BLOCK_RECORD
  5
E9
330
1
100
AcDbSymbolTableRecord
100
AcDbBlockTableRecord
  2
SW_BLOCK_DIMENSION_11
340
0
102
{BLKREFS
331
F0
102
}
  0
BLOCK_RECORD
  5
F1
330
1
100
AcDbSymbolTableRecord
100
AcDbBlockTableRecord
  2
SW_BLOCK_DIMENSION_12
340
0
102
{BLKREFS
331
F8
102
}
  0
BLOCK_RECORD
  5
F9
330
1
100
AcDbSymbolTableRecord
100
AcDbBlockTableRecord
  2
SW_BLOCK_DIMENSION_13
340
0
102
{BLKREFS
331
100
102
}
  0
BLOCK_RECORD
  5
101
330
1
100
AcDbSymbolTableRecord
100
AcDbBlockTableRecord
  2
SW_BLOCK_DIMENSION_14
340
0
102
{BLKREFS
331
110
102
}
  0
BLOCK_RECORD
  5
111
330
1
100
AcDbSymbolTableRecord
100
AcDbBlockTableRecord
  2
SW_BLOCK_DIMENSION_15
340
0
102
{BLKREFS
331
121
102
}
  0
BLOCK_RECORD
  5
122
330
1
100
AcDbSymbolTableRecord
100
AcDbBlockTableRecord
  2
SW_BLOCK_DIMENSION_16
340
0
102
{BLKREFS
331
132
102
}
  0
BLOCK_RECORD
  5
133
330
1
100
AcDbSymbolTableRecord
100
AcDbBlockTableRecord
  2
SW_BLOCK_DIMENSION_17
340
0
102
{BLKREFS
331
143
102
}
  0
BLOCK_RECORD
  5
144
330
1
100
AcDbSymbolTableRecord
100
AcDbBlockTableRecord
  2
SW_BLOCK_DIMENSION_18
340
0
102
{BLKREFS
331
154
102
}
  0
BLOCK_RECORD
  5
155
330
1
100
AcDbSymbolTableRecord
100
AcDbBlockTableRecord
  2
SW_BLOCK_DIMENSION_19
340
0
102
{BLKREFS
331
165
102
}
  0
BLOCK_RECORD
  5
166
330
1
100
AcDbSymbolTableRecord
100
AcDbBlockTableRecord
  2
SW_NOTE_0
340
0
102
{BLKREFS
331
16B
102
}
  0
BLOCK_RECORD
  5
171
330
1
100
AcDbSymbolTableRecord
100
AcDbBlockTableRecord
  2
SW_NOTE_1
340
0
102
{BLKREFS
331
178
102
}
  0
ENDTAB
  0
ENDSEC
  0
SECTION
  2
BLOCKS
  0
BLOCK
  5
20
330
1F
100
AcDbEntity
  8
0
100
AcDbBlockBegin
  2
*Model_Space
 70
     0
 10
0.0
 20
0.0
 30
0.0
  3
*Model_Space
  1

  0
ENDBLK
  5
21
330
1F
100
AcDbEntity
  8
0
100
AcDbBlockEnd
  0
BLOCK
  5
1C
330
1B
100
AcDbEntity
 67
     1
  8
0
100
AcDbBlockBegin
  2
*Paper_Space
 70
     0
 10
0.0
 20
0.0
 30
0.0
  3
*Paper_Space
  1

  0
ENDBLK
  5
1D
330
1B
100
AcDbEntity
 67
     1
  8
0
100
AcDbBlockEnd
  0
BLOCK
  5
24
330
23
100
AcDbEntity
  8
0
100
AcDbBlockBegin
  2
*Paper_Space0
 70
     0
 10
0.0
 20
0.0
 30
0.0
  3
*Paper_Space0
  1

  0
ENDBLK
  5
25
330
23
100
AcDbEntity
  8
0
100
AcDbBlockEnd
  0
BLOCK
  5
76
330
75
100
AcDbEntity
  8
0
100
AcDbBlockBegin
  2
Block1
 70
     0
 10
0.0
 20
0.0
 30
0.0
  3
Block1
  1

  0
LINE
  5
78
330
75
100
AcDbEntity
  8
EBENE_1
100
AcDbLine
 10
363.6834285714
 20
41.3579706949
 30
0.0
 11
388.6834285714
 21
41.3579706949
 31
0.0
  0
LINE
  5
79
330
75
100
AcDbEntity
  8
EBENE_1
100
AcDbLine
 10
374.9034285714
 20
41.3579706949
 30
0.0
 11
374.9034285714
 21
171.3579706949
 31
0.0
  0
LINE
  5
7A
330
75
100
AcDbEntity
  8
EBENE_1
100
AcDbLine
 10
374.9034285714
 20
51.3579706949
 30
0.0
 11
384.9034285714
 21
51.3579706949
 31
0.0
  0
LINE
  5
7B
330
75
100
AcDbEntity
  8
EBENE_1
100
AcDbLine
 10
374.9034285714
 20
61.3579706949
 30
0.0
 11
384.9034285714
 21
61.3579706949
 31
0.0
  0
LINE
  5
7C
330
75
100
AcDbEntity
  8
EBENE_1
100
AcDbLine
 10
374.9034285714
 20
71.3579706949
 30
0.0
 11
384.9034285714
 21
71.3579706949
 31
0.0
  0
LINE
  5
7D
330
75
100
AcDbEntity
  8
EBENE_1
100
AcDbLine
 10
374.9034285714
 20
81.3579706949
 30
0.0
 11
384.9034285714
 21
81.3579706949
 31
0.0
  0
LINE
  5
7E
330
75
100
AcDbEntity
  8
EBENE_1
100
AcDbLine
 10
374.9034285714
 20
91.3579706949
 30
0.0
 11
384.9034285714
 21
91.3579706949
 31
0.0
  0
LINE
  5
7F
330
75
100
AcDbEntity
  8
EBENE_1
100
AcDbLine
 10
374.9034285714
 20
101.3579706949
 30
0.0
 11
384.9034285714
 21
101.3579706949
 31
0.0
  0
LINE
  5
80
330
75
100
AcDbEntity
  8
EBENE_1
100
AcDbLine
 10
374.9034285714
 20
111.3579706949
 30
0.0
 11
384.9034285714
 21
111.3579706949
 31
0.0
  0
LINE
  5
81
330
75
100
AcDbEntity
  8
EBENE_1
100
AcDbLine
 10
374.9034285714
 20
121.3579706949
 30
0.0
 11
384.9034285714
 21
121.3579706949
 31
0.0
  0
LINE
  5
82
330
75
100
AcDbEntity
  8
EBENE_1
100
AcDbLine
 10
374.9034285714
 20
131.3579706949
 30
0.0
 11
384.9034285714
 21
131.3579706949
 31
0.0
  0
LINE
  5
83
330
75
100
AcDbEntity
  8
EBENE_1
100
AcDbLine
 10
374.9034285714
 20
141.3579706949
 30
0.0
 11
384.9034285714
 21
141.3579706949
 31
0.0
  0
LINE
  5
84
330
75
100
AcDbEntity
  8
EBENE_1
100
AcDbLine
 10
374.9034285714
 20
151.3579706949
 30
0.0
 11
384.9034285714
 21
151.3579706949
 31
0.0
  0
LINE
  5
85
330
75
100
AcDbEntity
  8
EBENE_1
100
AcDbLine
 10
374.9034285714
 20
161.3579706949
 30
0.0
 11
384.9034285714
 21
161.3579706949
 31
0.0
  0
LINE
  5
86
330
75
100
AcDbEntity
  8
EBENE_1
100
AcDbLine
 10
374.9034285714
 20
171.3579706949
 30
0.0
 11
384.9034285714
 21
171.3579706949
 31
0.0
  0
LINE
  5
87
330
75
100
AcDbEntity
  8
EBENE_1
100
AcDbLine
 10
374.9034285714
 20
66.7579706949
 30
0.0
 11
362.9034285714
 21
66.7579706949
 31
0.0
  0
LINE
  5
88
330
75
100
AcDbEntity
  8
EBENE_1
100
AcDbLine
 10
374.9034285714
 20
92.1579706949
 30
0.0
 11
362.9034285714
 21
92.1579706949
 31
0.0
  0
LINE
  5
89
330
75
100
AcDbEntity
  8
EBENE_1
100
AcDbLine
 10
374.9034285714
 20
117.5579706949
 30
0.0
 11
362.9034285714
 21
117.5579706949
 31
0.0
  0
LINE
  5
8A
330
75
100
AcDbEntity
  8
EBENE_1
100
AcDbLine
 10
374.9034285714
 20
142.9579706949
 30
0.0
 11
362.9034285714
 21
142.9579706949
 31
0.0
  0
LINE
  5
8B
330
75
100
AcDbEntity
  8
EBENE_1
100
AcDbLine
 10
374.9034285714
 20
168.3579706949
 30
0.0
 11
362.9034285714
 21
168.3579706949
 31
0.0
  0
INSERT
  5
98
330
75
100
AcDbEntity
  8
EBENE_1
100
AcDbBlockReference
  2
SW_BLOCK_DIMENSION_0
 10
397.2096946378
 20
38.9914197296
 30
0.0
  0
INSERT
  5
A0
330
75
100
AcDbEntity
  8
EBENE_1
100
AcDbBlockReference
  2
SW_BLOCK_DIMENSION_1
 10
397.2096946378
 20
48.9914197296
 30
0.0
  0
INSERT
  5
A8
330
75
100
AcDbEntity
  8
EBENE_1
100
AcDbBlockReference
  2
SW_BLOCK_DIMENSION_2
 10
397.2096946378
 20
58.9914197296
 30
0.0
  0
INSERT
  5
B0
330
75
100
AcDbEntity
  8
EBENE_1
100
AcDbBlockReference
  2
SW_BLOCK_DIMENSION_3
 10
397.2096946378
 20
68.9914197296
 30
0.0
  0
INSERT
  5
B8
330
75
100
AcDbEntity
  8
EBENE_1
100
AcDbBlockReference
  2
SW_BLOCK_DIMENSION_4
 10
397.2096946378
 20
78.9914197296
 30
0.0
  0
INSERT
  5
C0
330
75
100
AcDbEntity
  8
EBENE_1
100
AcDbBlockReference
  2
SW_BLOCK_DIMENSION_5
 10
397.2096946378
 20
88.9914197296
 30
0.0
  0
INSERT
  5
C8
330
75
100
AcDbEntity
  8
EBENE_1
100
AcDbBlockReference
  2
SW_BLOCK_DIMENSION_6
 10
397.2096946378
 20
98.9914197296
 30
0.0
  0
INSERT
  5
D0
330
75
100
AcDbEntity
  8
EBENE_1
100
AcDbBlockReference
  2
SW_BLOCK_DIMENSION_7
 10
397.2096946378
 20
108.9914197296
 30
0.0
  0
INSERT
  5
D8
330
75
100
AcDbEntity
  8
EBENE_1
100
AcDbBlockReference
  2
SW_BLOCK_DIMENSION_8
 10
397.2096946378
 20
118.9914197296
 30
0.0
  0
INSERT
  5
E0
330
75
100
AcDbEntity
  8
EBENE_1
100
AcDbBlockReference
  2
SW_BLOCK_DIMENSION_9
 10
397.2096946378
 20
128.9914197296
 30
0.0
  0
INSERT
  5
E8
330
75
100
AcDbEntity
  8
EBENE_1
100
AcDbBlockReference
  2
SW_BLOCK_DIMENSION_10
 10
397.2096946378
 20
138.9914197296
 30
0.0
  0
INSERT
  5
F0
330
75
100
AcDbEntity
  8
EBENE_1
100
AcDbBlockReference
  2
SW_BLOCK_DIMENSION_11
 10
397.2096946378
 20
148.9914197296
 30
0.0
  0
INSERT
  5
F8
330
75
100
AcDbEntity
  8
EBENE_1
100
AcDbBlockReference
  2
SW_BLOCK_DIMENSION_12
 10
397.2096946378
 20
158.9914197296
 30
0.0
  0
INSERT
  5
100
330
75
100
AcDbEntity
  8
EBENE_1
100
AcDbBlockReference
  2
SW_BLOCK_DIMENSION_13
 10
397.2096946378
 20
168.9914197296
 30
0.0
  0
INSERT
  5
110
330
75
100
AcDbEntity
  8
EBENE_1
100
AcDbBlockReference
  2
SW_BLOCK_DIMENSION_14
 10
337.2987953614
 20
36.1691980072
 30
0.0
  0
INSERT
  5
121
330
75
100
AcDbEntity
  8
EBENE_1
100
AcDbBlockReference
  2
SW_BLOCK_DIMENSION_15
 10
337.2987953614
 20
61.5691980072
 30
0.0
  0
INSERT
  5
132
330
75
100
AcDbEntity
  8
EBENE_1
100
AcDbBlockReference
  2
SW_BLOCK_DIMENSION_16
 10
337.2987953614
 20
86.9691980072
 30
0.0
  0
INSERT
  5
143
330
75
100
AcDbEntity
  8
EBENE_1
100
AcDbBlockReference
  2
SW_BLOCK_DIMENSION_17
 10
337.2987953614
 20
112.3691980072
 30
0.0
  0
INSERT
  5
154
330
75
100
AcDbEntity
  8
EBENE_1
100
AcDbBlockReference
  2
SW_BLOCK_DIMENSION_18
 10
336.8284243759
 20
137.7691980072
 30
0.0
  0
INSERT
  5
165
330
75
100
AcDbEntity
  8
EBENE_1
100
AcDbBlockReference
  2
SW_BLOCK_DIMENSION_19
 10
337.2987953614
 20
163.1691980072
 30
0.0
  0
INSERT
  5
16B
330
75
100
AcDbEntity
  8
EBENE_1
 62
   179
100
AcDbBlockReference
  2
SW_NOTE_0
 10
337.5586028241
 20
28.8175207347
 30
0.0
  0
MTEXT
  5
16C
330
75
100
AcDbEntity
  8
EBENE_1
100
AcDbMText
 10
393.160738319
 20
33.5924424874
 30
0.0
 40
3.7041666667
 41
0.0
 71
     1
 72
     1
  1
mm
  7
SLDTEXTSTYLE0
 73
     1
 44
1.0
  0
ENDBLK
  5
77
330
75
100
AcDbEntity
  8
0
100
AcDbBlockEnd
  0
BLOCK
  5
8D
330
8C
100
AcDbEntity
  8
0
100
AcDbBlockBegin
  2
SW_BLOCK_DIMENSION_0
 70
     0
 10
0.0
 20
0.0
 30
0.0
  3
SW_BLOCK_DIMENSION_0
  1

  0
INSERT
  5
94
330
8C
100
AcDbEntity
  8
EBENE_1
 62
     0
100
AcDbBlockReference
  2
_ORIGIN
 10
-1.5805038061
 20
2.3665509652
 30
0.0
 41
0.9483022837
 42
0.9483022837
 50
0.0
  0
LINE
  5
95
330
8C
100
AcDbEntity
  8
EBENE_1
 62
     0
100
AcDbLine
 10
-6.5262660664
 20
2.3665509652
 30
0.0
 11
0.0
 21
2.3665509652
 31
0.0
  0
MTEXT
  5
97
330
8C
100
AcDbEntity
  8
EBENE_1
 62
     0
100
AcDbMText
 10
0.0
 20
4.0927900738
 30
0.0
 40
3.175
 41
0.0
 71
     1
 72
     1
  1
0
  7
SLDTEXTSTYLE0
 73
     1
 44
1.0
  0
ENDBLK
  5
8E
330
8C
100
AcDbEntity
  8
0
100
AcDbBlockEnd
  0
BLOCK
  5
90
330
8F
100
AcDbEntity
  8
0
100
AcDbBlockBegin
  2
_ORIGIN
 70
     0
 10
0.0
 20
0.0
 30
0.0
  3
_ORIGIN
  1

  0
CIRCLE
  5
92
330
8F
100
AcDbEntity
  8
0
  6
ByBlock
 62
     0
370
    -2
100
AcDbCircle
 10
0.0
 20
0.0
 30
0.0
 40
0.5
  0
LINE
  5
93
330
8F
100
AcDbEntity
  8
0
  6
ByBlock
 62
     0
370
    -2
100
AcDbLine
 10
0.0
 20
0.0
 30
0.0
 11
-1.0
 21
0.0
 31
0.0
  0
ENDBLK
  5
91
330
8F
100
AcDbEntity
  8
0
100
AcDbBlockEnd
  0
BLOCK
  5
9A
330
99
100
AcDbEntity
  8
0
100
AcDbBlockBegin
  2
SW_BLOCK_DIMENSION_1
 70
     0
 10
0.0
 20
0.0
 30
0.0
  3
SW_BLOCK_DIMENSION_1
  1

  0
SOLID
  5
9C
330
99
100
AcDbEntity
  8
EBENE_1
 62
     0
100
AcDbTrace
 10
-1.5805038061
 20
2.3665509652
 30
0.0
 11
-2.0546549479
 21
-0.7154314566
 31
0.0
 12
-1.1063526643
 22
-0.7154314566
 32
0.0
 13
-1.1063526643
 23
-0.7154314566
 33
0.0
  0
LINE
  5
9D
330
99
100
AcDbEntity
  8
EBENE_1
 62
     0
100
AcDbLine
 10
-10.3062660664
 20
2.3665509652
 30
0.0
 11
0.0
 21
2.3665509652
 31
0.0
  0
LINE
  5
9E
330
99
100
AcDbEntity
  8
EBENE_1
 62
     0
100
AcDbLine
 10
-1.5805038061
 20
-7.6334490348
 30
0.0
 11
-1.5805038061
 21
2.3665509652
 31
0.0
  0
MTEXT
  5
9F
330
99
100
AcDbEntity
  8
EBENE_1
 62
     0
100
AcDbMText
 10
0.0
 20
4.0927900738
 30
0.0
 40
3.175
 41
0.0
 71
     1
 72
     1
  1
10
  7
SLDTEXTSTYLE0
 73
     1
 44
1.0
  0
ENDBLK
  5
9B
330
99
100
AcDbEntity
  8
0
100
AcDbBlockEnd
  0
BLOCK
  5
A2
330
A1
100
AcDbEntity
  8
0
100
AcDbBlockBegin
  2
SW_BLOCK_DIMENSION_2
 70
     0
 10
0.0
 20
0.0
 30
0.0
  3
SW_BLOCK_DIMENSION_2
  1

  0
SOLID
  5
A4
330
A1
100
AcDbEntity
  8
EBENE_1
 62
     0
100
AcDbTrace
 10
-1.5805038061
 20
2.3665509652
 30
0.0
 11
-2.0546549479
 21
-0.7154314566
 31
0.0
 12
-1.1063526643
 22
-0.7154314566
 32
0.0
 13
-1.1063526643
 23
-0.7154314566
 33
0.0
  0
LINE
  5
A5
330
A1
100
AcDbEntity
  8
EBENE_1
 62
     0
100
AcDbLine
 10
-10.3062660664
 20
2.3665509652
 30
0.0
 11
0.0
 21
2.3665509652
 31
0.0
  0
LINE
  5
A6
330
A1
100
AcDbEntity
  8
EBENE_1
 62
     0
100
AcDbLine
 10
-1.5805038061
 20
-7.6334490348
 30
0.0
 11
-1.5805038061
 21
2.3665509652
 31
0.0
  0
MTEXT
  5
A7
330
A1
100
AcDbEntity
  8
EBENE_1
 62
     0
100
AcDbMText
 10
0.0
 20
4.0927900738
 30
0.0
 40
3.175
 41
0.0
 71
     1
 72
     1
  1
20
  7
SLDTEXTSTYLE0
 73
     1
 44
1.0
  0
ENDBLK
  5
A3
330
A1
100
AcDbEntity
  8
0
100
AcDbBlockEnd
  0
BLOCK
  5
AA
330
A9
100
AcDbEntity
  8
0
100
AcDbBlockBegin
  2
SW_BLOCK_DIMENSION_3
 70
     0
 10
0.0
 20
0.0
 30
0.0
  3
SW_BLOCK_DIMENSION_3
  1

  0
SOLID
  5
AC
330
A9
100
AcDbEntity
  8
EBENE_1
 62
     0
100
AcDbTrace
 10
-1.5805038061
 20
2.3665509652
 30
0.0
 11
-2.0546549479
 21
-0.7154314566
 31
0.0
 12
-1.1063526643
 22
-0.7154314566
 32
0.0
 13
-1.1063526643
 23
-0.7154314566
 33
0.0
  0
LINE
  5
AD
330
A9
100
AcDbEntity
  8
EBENE_1
 62
     0
100
AcDbLine
 10
-10.3062660664
 20
2.3665509652
 30
0.0
 11
0.0
 21
2.3665509652
 31
0.0
  0
LINE
  5
AE
330
A9
100
AcDbEntity
  8
EBENE_1
 62
     0
100
AcDbLine
 10
-1.5805038061
 20
-7.6334490348
 30
0.0
 11
-1.5805038061
 21
2.3665509652
 31
0.0
  0
MTEXT
  5
AF
330
A9
100
AcDbEntity
  8
EBENE_1
 62
     0
100
AcDbMText
 10
0.0
 20
4.0927900738
 30
0.0
 40
3.175
 41
0.0
 71
     1
 72
     1
  1
30
  7
SLDTEXTSTYLE0
 73
     1
 44
1.0
  0
ENDBLK
  5
AB
330
A9
100
AcDbEntity
  8
0
100
AcDbBlockEnd
  0
BLOCK
  5
B2
330
B1
100
AcDbEntity
  8
0
100
AcDbBlockBegin
  2
SW_BLOCK_DIMENSION_4
 70
     0
 10
0.0
 20
0.0
 30
0.0
  3
SW_BLOCK_DIMENSION_4
  1

  0
SOLID
  5
B4
330
B1
100
AcDbEntity
  8
EBENE_1
 62
     0
100
AcDbTrace
 10
-1.5805038061
 20
2.3665509652
 30
0.0
 11
-2.0546549479
 21
-0.7154314566
 31
0.0
 12
-1.1063526643
 22
-0.7154314566
 32
0.0
 13
-1.1063526643
 23
-0.7154314566
 33
0.0
  0
LINE
  5
B5
330
B1
100
AcDbEntity
  8
EBENE_1
 62
     0
100
AcDbLine
 10
-10.3062660664
 20
2.3665509652
 30
0.0
 11
0.0
 21
2.3665509652
 31
0.0
  0
LINE
  5
B6
330
B1
100
AcDbEntity
  8
EBENE_1
 62
     0
100
AcDbLine
 10
-1.5805038061
 20
-7.6334490348
 30
0.0
 11
-1.5805038061
 21
2.3665509652
 31
0.0
  0
MTEXT
  5
B7
330
B1
100
AcDbEntity
  8
EBENE_1
 62
     0
100
AcDbMText
 10
0.0
 20
4.0927900738
 30
0.0
 40
3.175
 41
0.0
 71
     1
 72
     1
  1
40
  7
SLDTEXTSTYLE0
 73
     1
 44
1.0
  0
ENDBLK
  5
B3
330
B1
100
AcDbEntity
  8
0
100
AcDbBlockEnd
  0
BLOCK
  5
BA
330
B9
100
AcDbEntity
  8
0
100
AcDbBlockBegin
  2
SW_BLOCK_DIMENSION_5
 70
     0
 10
0.0
 20
0.0
 30
0.0
  3
SW_BLOCK_DIMENSION_5
  1

  0
SOLID
  5
BC
330
B9
100
AcDbEntity
  8
EBENE_1
 62
     0
100
AcDbTrace
 10
-1.5805038061
 20
2.3665509652
 30
0.0
 11
-2.0546549479
 21
-0.7154314566
 31
0.0
 12
-1.1063526643
 22
-0.7154314566
 32
0.0
 13
-1.1063526643
 23
-0.7154314566
 33
0.0
  0
LINE
  5
BD
330
B9
100
AcDbEntity
  8
EBENE_1
 62
     0
100
AcDbLine
 10
-10.3062660664
 20
2.3665509652
 30
0.0
 11
0.0
 21
2.3665509652
 31
0.0
  0
LINE
  5
BE
330
B9
100
AcDbEntity
  8
EBENE_1
 62
     0
100
AcDbLine
 10
-1.5805038061
 20
-7.6334490348
 30
0.0
 11
-1.5805038061
 21
2.3665509652
 31
0.0
  0
MTEXT
  5
BF
330
B9
100
AcDbEntity
  8
EBENE_1
 62
     0
100
AcDbMText
 10
0.0
 20
4.0927900738
 30
0.0
 40
3.175
 41
0.0
 71
     1
 72
     1
  1
50
  7
SLDTEXTSTYLE0
 73
     1
 44
1.0
  0
ENDBLK
  5
BB
330
B9
100
AcDbEntity
  8
0
100
AcDbBlockEnd
  0
BLOCK
  5
C2
330
C1
100
AcDbEntity
  8
0
100
AcDbBlockBegin
  2
SW_BLOCK_DIMENSION_6
 70
     0
 10
0.0
 20
0.0
 30
0.0
  3
SW_BLOCK_DIMENSION_6
  1

  0
SOLID
  5
C4
330
C1
100
AcDbEntity
  8
EBENE_1
 62
     0
100
AcDbTrace
 10
-1.5805038061
 20
2.3665509652
 30
0.0
 11
-2.0546549479
 21
-0.7154314566
 31
0.0
 12
-1.1063526643
 22
-0.7154314566
 32
0.0
 13
-1.1063526643
 23
-0.7154314566
 33
0.0
  0
LINE
  5
C5
330
C1
100
AcDbEntity
  8
EBENE_1
 62
     0
100
AcDbLine
 10
-10.3062660664
 20
2.3665509652
 30
0.0
 11
0.0
 21
2.3665509652
 31
0.0
  0
LINE
  5
C6
330
C1
100
AcDbEntity
  8
EBENE_1
 62
     0
100
AcDbLine
 10
-1.5805038061
 20
-7.6334490348
 30
0.0
 11
-1.5805038061
 21
2.3665509652
 31
0.0
  0
MTEXT
  5
C7
330
C1
100
AcDbEntity
  8
EBENE_1
 62
     0
100
AcDbMText
 10
0.0
 20
4.0927900738
 30
0.0
 40
3.175
 41
0.0
 71
     1
 72
     1
  1
60
  7
SLDTEXTSTYLE0
 73
     1
 44
1.0
  0
ENDBLK
  5
C3
330
C1
100
AcDbEntity
  8
0
100
AcDbBlockEnd
  0
BLOCK
  5
CA
330
C9
100
AcDbEntity
  8
0
100
AcDbBlockBegin
  2
SW_BLOCK_DIMENSION_7
 70
     0
 10
0.0
 20
0.0
 30
0.0
  3
SW_BLOCK_DIMENSION_7
  1

  0
SOLID
  5
CC
330
C9
100
AcDbEntity
  8
EBENE_1
 62
     0
100
AcDbTrace
 10
-1.5805038061
 20
2.3665509652
 30
0.0
 11
-2.0546549479
 21
-0.7154314566
 31
0.0
 12
-1.1063526643
 22
-0.7154314566
 32
0.0
 13
-1.1063526643
 23
-0.7154314566
 33
0.0
  0
LINE
  5
CD
330
C9
100
AcDbEntity
  8
EBENE_1
 62
     0
100
AcDbLine
 10
-10.3062660664
 20
2.3665509652
 30
0.0
 11
0.0
 21
2.3665509652
 31
0.0
  0
LINE
  5
CE
330
C9
100
AcDbEntity
  8
EBENE_1
 62
     0
100
AcDbLine
 10
-1.5805038061
 20
-7.6334490348
 30
0.0
 11
-1.5805038061
 21
2.3665509652
 31
0.0
  0
MTEXT
  5
CF
330
C9
100
AcDbEntity
  8
EBENE_1
 62
     0
100
AcDbMText
 10
0.0
 20
4.0927900738
 30
0.0
 40
3.175
 41
0.0
 71
     1
 72
     1
  1
70
  7
SLDTEXTSTYLE0
 73
     1
 44
1.0
  0
ENDBLK
  5
CB
330
C9
100
AcDbEntity
  8
0
100
AcDbBlockEnd
  0
BLOCK
  5
D2
330
D1
100
AcDbEntity
  8
0
100
AcDbBlockBegin
  2
SW_BLOCK_DIMENSION_8
 70
     0
 10
0.0
 20
0.0
 30
0.0
  3
SW_BLOCK_DIMENSION_8
  1

  0
SOLID
  5
D4
330
D1
100
AcDbEntity
  8
EBENE_1
 62
     0
100
AcDbTrace
 10
-1.5805038061
 20
2.3665509652
 30
0.0
 11
-2.0546549479
 21
-0.7154314566
 31
0.0
 12
-1.1063526643
 22
-0.7154314566
 32
0.0
 13
-1.1063526643
 23
-0.7154314566
 33
0.0
  0
LINE
  5
D5
330
D1
100
AcDbEntity
  8
EBENE_1
 62
     0
100
AcDbLine
 10
-10.3062660664
 20
2.3665509652
 30
0.0
 11
0.0
 21
2.3665509652
 31
0.0
  0
LINE
  5
D6
330
D1
100
AcDbEntity
  8
EBENE_1
 62
     0
100
AcDbLine
 10
-1.5805038061
 20
-7.6334490348
 30
0.0
 11
-1.5805038061
 21
2.3665509652
 31
0.0
  0
MTEXT
  5
D7
330
D1
100
AcDbEntity
  8
EBENE_1
 62
     0
100
AcDbMText
 10
0.0
 20
4.0927900738
 30
0.0
 40
3.175
 41
0.0
 71
     1
 72
     1
  1
80
  7
SLDTEXTSTYLE0
 73
     1
 44
1.0
  0
ENDBLK
  5
D3
330
D1
100
AcDbEntity
  8
0
100
AcDbBlockEnd
  0
BLOCK
  5
DA
330
D9
100
AcDbEntity
  8
0
100
AcDbBlockBegin
  2
SW_BLOCK_DIMENSION_9
 70
     0
 10
0.0
 20
0.0
 30
0.0
  3
SW_BLOCK_DIMENSION_9
  1

  0
SOLID
  5
DC
330
D9
100
AcDbEntity
  8
EBENE_1
 62
     0
100
AcDbTrace
 10
-1.5805038061
 20
2.3665509652
 30
0.0
 11
-2.0546549479
 21
-0.7154314566
 31
0.0
 12
-1.1063526643
 22
-0.7154314566
 32
0.0
 13
-1.1063526643
 23
-0.7154314566
 33
0.0
  0
LINE
  5
DD
330
D9
100
AcDbEntity
  8
EBENE_1
 62
     0
100
AcDbLine
 10
-10.3062660664
 20
2.3665509652
 30
0.0
 11
0.0
 21
2.3665509652
 31
0.0
  0
LINE
  5
DE
330
D9
100
AcDbEntity
  8
EBENE_1
 62
     0
100
AcDbLine
 10
-1.5805038061
 20
-7.6334490348
 30
0.0
 11
-1.5805038061
 21
2.3665509652
 31
0.0
  0
MTEXT
  5
DF
330
D9
100
AcDbEntity
  8
EBENE_1
 62
     0
100
AcDbMText
 10
0.0
 20
4.0927900738
 30
0.0
 40
3.175
 41
0.0
 71
     1
 72
     1
  1
90
  7
SLDTEXTSTYLE0
 73
     1
 44
1.0
  0
ENDBLK
  5
DB
330
D9
100
AcDbEntity
  8
0
100
AcDbBlockEnd
  0
BLOCK
  5
E2
330
E1
100
AcDbEntity
  8
0
100
AcDbBlockBegin
  2
SW_BLOCK_DIMENSION_10
 70
     0
 10
0.0
 20
0.0
 30
0.0
  3
SW_BLOCK_DIMENSION_10
  1

  0
SOLID
  5
E4
330
E1
100
AcDbEntity
  8
EBENE_1
 62
     0
100
AcDbTrace
 10
-1.5805038061
 20
2.3665509652
 30
0.0
 11
-2.0546549479
 21
-0.7154314566
 31
0.0
 12
-1.1063526643
 22
-0.7154314566
 32
0.0
 13
-1.1063526643
 23
-0.7154314566
 33
0.0
  0
LINE
  5
E5
330
E1
100
AcDbEntity
  8
EBENE_1
 62
     0
100
AcDbLine
 10
-10.3062660664
 20
2.3665509652
 30
0.0
 11
0.0
 21
2.3665509652
 31
0.0
  0
LINE
  5
E6
330
E1
100
AcDbEntity
  8
EBENE_1
 62
     0
100
AcDbLine
 10
-1.5805038061
 20
-7.6334490348
 30
0.0
 11
-1.5805038061
 21
2.3665509652
 31
0.0
  0
MTEXT
  5
E7
330
E1
100
AcDbEntity
  8
EBENE_1
 62
     0
100
AcDbMText
 10
0.0
 20
4.0927900738
 30
0.0
 40
3.175
 41
0.0
 71
     1
 72
     1
  1
100
  7
SLDTEXTSTYLE0
 73
     1
 44
1.0
  0
ENDBLK
  5
E3
330
E1
100
AcDbEntity
  8
0
100
AcDbBlockEnd
  0
BLOCK
  5
EA
330
E9
100
AcDbEntity
  8
0
100
AcDbBlockBegin
  2
SW_BLOCK_DIMENSION_11
 70
     0
 10
0.0
 20
0.0
 30
0.0
  3
SW_BLOCK_DIMENSION_11
  1

  0
SOLID
  5
EC
330
E9
100
AcDbEntity
  8
EBENE_1
 62
     0
100
AcDbTrace
 10
-1.5805038061
 20
2.3665509652
 30
0.0
 11
-2.0546549479
 21
-0.7154314566
 31
0.0
 12
-1.1063526643
 22
-0.7154314566
 32
0.0
 13
-1.1063526643
 23
-0.7154314566
 33
0.0
  0
LINE
  5
ED
330
E9
100
AcDbEntity
  8
EBENE_1
 62
     0
100
AcDbLine
 10
-10.3062660664
 20
2.3665509652
 30
0.0
 11
0.0
 21
2.3665509652
 31
0.0
  0
LINE
  5
EE
330
E9
100
AcDbEntity
  8
EBENE_1
 62
     0
100
AcDbLine
 10
-1.5805038061
 20
-7.6334490348
 30
0.0
 11
-1.5805038061
 21
2.3665509652
 31
0.0
  0
MTEXT
  5
EF
330
E9
100
AcDbEntity
  8
EBENE_1
 62
     0
100
AcDbMText
 10
0.0
 20
4.0927900738
 30
0.0
 40
3.175
 41
0.0
 71
     1
 72
     1
  1
110
  7
SLDTEXTSTYLE0
 73
     1
 44
1.0
  0
ENDBLK
  5
EB
330
E9
100
AcDbEntity
  8
0
100
AcDbBlockEnd
  0
BLOCK
  5
F2
330
F1
100
AcDbEntity
  8
0
100
AcDbBlockBegin
  2
SW_BLOCK_DIMENSION_12
 70
     0
 10
0.0
 20
0.0
 30
0.0
  3
SW_BLOCK_DIMENSION_12
  1

  0
SOLID
  5
F4
330
F1
100
AcDbEntity
  8
EBENE_1
 62
     0
100
AcDbTrace
 10
-1.5805038061
 20
2.3665509652
 30
0.0
 11
-2.0546549479
 21
-0.7154314566
 31
0.0
 12
-1.1063526643
 22
-0.7154314566
 32
0.0
 13
-1.1063526643
 23
-0.7154314566
 33
0.0
  0
LINE
  5
F5
330
F1
100
AcDbEntity
  8
EBENE_1
 62
     0
100
AcDbLine
 10
-10.3062660664
 20
2.3665509652
 30
0.0
 11
0.0
 21
2.3665509652
 31
0.0
  0
LINE
  5
F6
330
F1
100
AcDbEntity
  8
EBENE_1
 62
     0
100
AcDbLine
 10
-1.5805038061
 20
-7.6334490348
 30
0.0
 11
-1.5805038061
 21
2.3665509652
 31
0.0
  0
MTEXT
  5
F7
330
F1
100
AcDbEntity
  8
EBENE_1
 62
     0
100
AcDbMText
 10
0.0
 20
4.0927900738
 30
0.0
 40
3.175
 41
0.0
 71
     1
 72
     1
  1
120
  7
SLDTEXTSTYLE0
 73
     1
 44
1.0
  0
ENDBLK
  5
F3
330
F1
100
AcDbEntity
  8
0
100
AcDbBlockEnd
  0
BLOCK
  5
FA
330
F9
100
AcDbEntity
  8
0
100
AcDbBlockBegin
  2
SW_BLOCK_DIMENSION_13
 70
     0
 10
0.0
 20
0.0
 30
0.0
  3
SW_BLOCK_DIMENSION_13
  1

  0
SOLID
  5
FC
330
F9
100
AcDbEntity
  8
EBENE_1
 62
     0
100
AcDbTrace
 10
-1.5805038061
 20
2.3665509652
 30
0.0
 11
-2.0546549479
 21
-0.7154314566
 31
0.0
 12
-1.1063526643
 22
-0.7154314566
 32
0.0
 13
-1.1063526643
 23
-0.7154314566
 33
0.0
  0
LINE
  5
FD
330
F9
100
AcDbEntity
  8
EBENE_1
 62
     0
100
AcDbLine
 10
-10.3062660664
 20
2.3665509652
 30
0.0
 11
0.0
 21
2.3665509652
 31
0.0
  0
LINE
  5
FE
330
F9
100
AcDbEntity
  8
EBENE_1
 62
     0
100
AcDbLine
 10
-1.5805038061
 20
-7.6334490348
 30
0.0
 11
-1.5805038061
 21
2.3665509652
 31
0.0
  0
MTEXT
  5
FF
330
F9
100
AcDbEntity
  8
EBENE_1
 62
     0
100
AcDbMText
 10
0.0
 20
4.0927900738
 30
0.0
 40
3.175
 41
0.0
 71
     1
 72
     1
  1
130
  7
SLDTEXTSTYLE0
 73
     1
 44
1.0
  0
ENDBLK
  5
FB
330
F9
100
AcDbEntity
  8
0
100
AcDbBlockEnd
  0
BLOCK
  5
102
330
101
100
AcDbEntity
  8
0
100
AcDbBlockBegin
  2
SW_BLOCK_DIMENSION_14
 70
     0
 10
0.0
 20
0.0
 30
0.0
  3
SW_BLOCK_DIMENSION_14
  1

  0
INSERT
  5
104
330
101
100
AcDbEntity
  8
EBENE_1
 62
     0
100
AcDbBlockReference
  2
_ORIGIN
 10
16.3971707594
 20
5.1887726877
 30
0.0
 41
0.9483022837
 42
0.9483022837
 50
0.0
  0
LINE
  5
105
330
101
100
AcDbEntity
  8
EBENE_1
 62
     0
100
AcDbLine
 10
3.2925925916
 20
9.671990294
 30
0.0
 11
2.2342592711
 21
9.671990294
 31
0.0
  0
LINE
  5
106
330
101
100
AcDbEntity
  8
EBENE_1
 62
     0
100
AcDbLine
 10
2.2342592711
 20
9.671990294
 30
0.0
 11
2.2342592711
 21
4.9388883635
 31
0.0
  0
LINE
  5
107
330
101
100
AcDbEntity
  8
EBENE_1
 62
     0
100
AcDbLine
 10
2.2342592711
 20
4.9388883635
 30
0.0
 11
3.2925925916
 21
4.9388883635
 31
0.0
  0
LINE
  5
108
330
101
100
AcDbEntity
  8
EBENE_1
 62
     0
100
AcDbLine
 10
11.5240741288
 20
9.671990294
 30
0.0
 11
12.5824074494
 21
9.671990294
 31
0.0
  0
LINE
  5
109
330
101
100
AcDbEntity
  8
EBENE_1
 62
     0
100
AcDbLine
 10
12.5824074494
 20
9.671990294
 30
0.0
 11
12.5824074494
 21
4.9388883635
 31
0.0
  0
LINE
  5
10A
330
101
100
AcDbEntity
  8
EBENE_1
 62
     0
100
AcDbLine
 10
12.5824074494
 20
4.9388883635
 30
0.0
 11
11.5240741288
 21
4.9388883635
 31
0.0
  0
LINE
  5
10B
330
101
100
AcDbEntity
  8
EBENE_1
 62
     0
100
AcDbLine
 10
24.38463321
 20
5.1887726877
 30
0.0
 11
14.8166669533
 21
5.1887726877
 31
0.0
  0
MTEXT
  5
10C
330
101
100
AcDbEntity
  8
EBENE_1
 62
     0
100
AcDbMText
 10
1.190625
 20
4.0927900738
 30
0.0
 40
3.175
 41
0.0
 71
     1
 72
     1
  1

  7
SLDTEXTSTYLE0
 73
     1
 44
1.0
  0
MTEXT
  5
10D
330
101
100
AcDbEntity
  8
EBENE_1
 62
     0
100
AcDbMText
 10
3.2925925916
 20
9.0316784373
 30
0.0
 40
3.175
 41
0.0
 71
     1
 72
     1
  1
0,00
  7
SLDTEXTSTYLE0
 73
     1
 44
1.0
  0
MTEXT
  5
10E
330
101
100
AcDbEntity
  8
EBENE_1
 62
     0
100
AcDbMText
 10
6.2324074097
 20
4.0927898409
 30
0.0
 40
3.175
 41
0.0
 71
     1
 72
     1
  1
0
  7
SLDTEXTSTYLE0
 73
     1
 44
1.0
  0
MTEXT
  5
10F
330
101
100
AcDbEntity
  8
EBENE_1
 62
     0
100
AcDbMText
 10
14.8313658863
 20
4.0927900738
 30
0.0
 40
3.175
 41
0.0
 71
     1
 72
     1
  1

  7
SLDTEXTSTYLE0
 73
     1
 44
1.0
  0
ENDBLK
  5
103
330
101
100
AcDbEntity
  8
0
100
AcDbBlockEnd
  0
BLOCK
  5
112
330
111
100
AcDbEntity
  8
0
100
AcDbBlockBegin
  2
SW_BLOCK_DIMENSION_15
 70
     0
 10
0.0
 20
0.0
 30
0.0
  3
SW_BLOCK_DIMENSION_15
  1

  0
SOLID
  5
114
330
111
100
AcDbEntity
  8
EBENE_1
 62
     0
100
AcDbTrace
 10
16.3971707594
 20
5.1887726877
 30
0.0
 11
15.9230196175
 21
2.1067902658
 31
0.0
 12
16.8713219012
 22
2.1067902658
 32
0.0
 13
16.8713219012
 23
2.1067902658
 33
0.0
  0
LINE
  5
115
330
111
100
AcDbEntity
  8
EBENE_1
 62
     0
100
AcDbLine
 10
3.2925925916
 20
9.671990294
 30
0.0
 11
2.2342592711
 21
9.671990294
 31
0.0
  0
LINE
  5
116
330
111
100
AcDbEntity
  8
EBENE_1
 62
     0
100
AcDbLine
 10
2.2342592711
 20
9.671990294
 30
0.0
 11
2.2342592711
 21
4.9388883635
 31
0.0
  0
LINE
  5
117
330
111
100
AcDbEntity
  8
EBENE_1
 62
     0
100
AcDbLine
 10
2.2342592711
 20
4.9388883635
 30
0.0
 11
3.2925925916
 21
4.9388883635
 31
0.0
  0
LINE
  5
118
330
111
100
AcDbEntity
  8
EBENE_1
 62
     0
100
AcDbLine
 10
11.5240741288
 20
9.671990294
 30
0.0
 11
12.5824074494
 21
9.671990294
 31
0.0
  0
LINE
  5
119
330
111
100
AcDbEntity
  8
EBENE_1
 62
     0
100
AcDbLine
 10
12.5824074494
 20
9.671990294
 30
0.0
 11
12.5824074494
 21
4.9388883635
 31
0.0
  0
LINE
  5
11A
330
111
100
AcDbEntity
  8
EBENE_1
 62
     0
100
AcDbLine
 10
12.5824074494
 20
4.9388883635
 30
0.0
 11
11.5240741288
 21
4.9388883635
 31
0.0
  0
LINE
  5
11B
330
111
100
AcDbEntity
  8
EBENE_1
 62
     0
100
AcDbLine
 10
23.60463321
 20
5.1887726877
 30
0.0
 11
14.8166669533
 21
5.1887726877
 31
0.0
  0
LINE
  5
11C
330
111
100
AcDbEntity
  8
EBENE_1
 62
     0
100
AcDbLine
 10
16.3971707594
 20
-20.2112273123
 30
0.0
 11
16.3971707594
 21
5.1887726877
 31
0.0
  0
MTEXT
  5
11D
330
111
100
AcDbEntity
  8
EBENE_1
 62
     0
100
AcDbMText
 10
1.190625
 20
4.0927900738
 30
0.0
 40
3.175
 41
0.0
 71
     1
 72
     1
  1

  7
SLDTEXTSTYLE0
 73
     1
 44
1.0
  0
MTEXT
  5
11E
330
111
100
AcDbEntity
  8
EBENE_1
 62
     0
100
AcDbMText
 10
3.2925925916
 20
9.0316784373
 30
0.0
 40
3.175
 41
0.0
 71
     1
 72
     1
  1
1,00
  7
SLDTEXTSTYLE0
 73
     1
 44
1.0
  0
MTEXT
  5
11F
330
111
100
AcDbEntity
  8
EBENE_1
 62
     0
100
AcDbMText
 10
2.1166665247
 20
4.0927898409
 30
0.0
 40
3.175
 41
0.0
 71
     1
 72
     1
  1
25,40
  7
SLDTEXTSTYLE0
 73
     1
 44
1.0
  0
MTEXT
  5
120
330
111
100
AcDbEntity
  8
EBENE_1
 62
     0
100
AcDbMText
 10
14.8313658863
 20
4.0927900738
 30
0.0
 40
3.175
 41
0.0
 71
     1
 72
     1
  1

  7
SLDTEXTSTYLE0
 73
     1
 44
1.0
  0
ENDBLK
  5
113
330
111
100
AcDbEntity
  8
0
100
AcDbBlockEnd
  0
BLOCK
  5
123
330
122
100
AcDbEntity
  8
0
100
AcDbBlockBegin
  2
SW_BLOCK_DIMENSION_16
 70
     0
 10
0.0
 20
0.0
 30
0.0
  3
SW_BLOCK_DIMENSION_16
  1

  0
SOLID
  5
125
330
122
100
AcDbEntity
  8
EBENE_1
 62
     0
100
AcDbTrace
 10
16.3971707594
 20
5.1887726877
 30
0.0
 11
15.9230196175
 21
2.1067902658
 31
0.0
 12
16.8713219012
 22
2.1067902658
 32
0.0
 13
16.8713219012
 23
2.1067902658
 33
0.0
  0
LINE
  5
126
330
122
100
AcDbEntity
  8
EBENE_1
 62
     0
100
AcDbLine
 10
3.2925925916
 20
9.671990294
 30
0.0
 11
2.2342592711
 21
9.671990294
 31
0.0
  0
LINE
  5
127
330
122
100
AcDbEntity
  8
EBENE_1
 62
     0
100
AcDbLine
 10
2.2342592711
 20
9.671990294
 30
0.0
 11
2.2342592711
 21
4.9388883635
 31
0.0
  0
LINE
  5
128
330
122
100
AcDbEntity
  8
EBENE_1
 62
     0
100
AcDbLine
 10
2.2342592711
 20
4.9388883635
 30
0.0
 11
3.2925925916
 21
4.9388883635
 31
0.0
  0
LINE
  5
129
330
122
100
AcDbEntity
  8
EBENE_1
 62
     0
100
AcDbLine
 10
11.5240741288
 20
9.671990294
 30
0.0
 11
12.5824074494
 21
9.671990294
 31
0.0
  0
LINE
  5
12A
330
122
100
AcDbEntity
  8
EBENE_1
 62
     0
100
AcDbLine
 10
12.5824074494
 20
9.671990294
 30
0.0
 11
12.5824074494
 21
4.9388883635
 31
0.0
  0
LINE
  5
12B
330
122
100
AcDbEntity
  8
EBENE_1
 62
     0
100
AcDbLine
 10
12.5824074494
 20
4.9388883635
 30
0.0
 11
11.5240741288
 21
4.9388883635
 31
0.0
  0
LINE
  5
12C
330
122
100
AcDbEntity
  8
EBENE_1
 62
     0
100
AcDbLine
 10
23.60463321
 20
5.1887726877
 30
0.0
 11
14.8166669533
 21
5.1887726877
 31
0.0
  0
LINE
  5
12D
330
122
100
AcDbEntity
  8
EBENE_1
 62
     0
100
AcDbLine
 10
16.3971707594
 20
-20.2112273123
 30
0.0
 11
16.3971707594
 21
5.1887726877
 31
0.0
  0
MTEXT
  5
12E
330
122
100
AcDbEntity
  8
EBENE_1
 62
     0
100
AcDbMText
 10
1.190625
 20
4.0927900738
 30
0.0
 40
3.175
 41
0.0
 71
     1
 72
     1
  1

  7
SLDTEXTSTYLE0
 73
     1
 44
1.0
  0
MTEXT
  5
12F
330
122
100
AcDbEntity
  8
EBENE_1
 62
     0
100
AcDbMText
 10
3.2925925916
 20
9.0316784373
 30
0.0
 40
3.175
 41
0.0
 71
     1
 72
     1
  1
2,00
  7
SLDTEXTSTYLE0
 73
     1
 44
1.0
  0
MTEXT
  5
130
330
122
100
AcDbEntity
  8
EBENE_1
 62
     0
100
AcDbMText
 10
2.1166665247
 20
4.0927898409
 30
0.0
 40
3.175
 41
0.0
 71
     1
 72
     1
  1
50,80
  7
SLDTEXTSTYLE0
 73
     1
 44
1.0
  0
MTEXT
  5
131
330
122
100
AcDbEntity
  8
EBENE_1
 62
     0
100
AcDbMText
 10
14.8313658863
 20
4.0927900738
 30
0.0
 40
3.175
 41
0.0
 71
     1
 72
     1
  1

  7
SLDTEXTSTYLE0
 73
     1
 44
1.0
  0
ENDBLK
  5
124
330
122
100
AcDbEntity
  8
0
100
AcDbBlockEnd
  0
BLOCK
  5
134
330
133
100
AcDbEntity
  8
0
100
AcDbBlockBegin
  2
SW_BLOCK_DIMENSION_17
 70
     0
 10
0.0
 20
0.0
 30
0.0
  3
SW_BLOCK_DIMENSION_17
  1

  0
SOLID
  5
136
330
133
100
AcDbEntity
  8
EBENE_1
 62
     0
100
AcDbTrace
 10
16.3971707594
 20
5.1887726877
 30
0.0
 11
15.9230196175
 21
2.1067902658
 31
0.0
 12
16.8713219012
 22
2.1067902658
 32
0.0
 13
16.8713219012
 23
2.1067902658
 33
0.0
  0
LINE
  5
137
330
133
100
AcDbEntity
  8
EBENE_1
 62
     0
100
AcDbLine
 10
3.2925925916
 20
9.671990294
 30
0.0
 11
2.2342592711
 21
9.671990294
 31
0.0
  0
LINE
  5
138
330
133
100
AcDbEntity
  8
EBENE_1
 62
     0
100
AcDbLine
 10
2.2342592711
 20
9.671990294
 30
0.0
 11
2.2342592711
 21
4.9388883635
 31
0.0
  0
LINE
  5
139
330
133
100
AcDbEntity
  8
EBENE_1
 62
     0
100
AcDbLine
 10
2.2342592711
 20
4.9388883635
 30
0.0
 11
3.2925925916
 21
4.9388883635
 31
0.0
  0
LINE
  5
13A
330
133
100
AcDbEntity
  8
EBENE_1
 62
     0
100
AcDbLine
 10
11.5240741288
 20
9.671990294
 30
0.0
 11
12.5824074494
 21
9.671990294
 31
0.0
  0
LINE
  5
13B
330
133
100
AcDbEntity
  8
EBENE_1
 62
     0
100
AcDbLine
 10
12.5824074494
 20
9.671990294
 30
0.0
 11
12.5824074494
 21
4.9388883635
 31
0.0
  0
LINE
  5
13C
330
133
100
AcDbEntity
  8
EBENE_1
 62
     0
100
AcDbLine
 10
12.5824074494
 20
4.9388883635
 30
0.0
 11
11.5240741288
 21
4.9388883635
 31
0.0
  0
LINE
  5
13D
330
133
100
AcDbEntity
  8
EBENE_1
 62
     0
100
AcDbLine
 10
23.60463321
 20
5.1887726877
 30
0.0
 11
14.8166669533
 21
5.1887726877
 31
0.0
  0
LINE
  5
13E
330
133
100
AcDbEntity
  8
EBENE_1
 62
     0
100
AcDbLine
 10
16.3971707594
 20
-20.2112273123
 30
0.0
 11
16.3971707594
 21
5.1887726877
 31
0.0
  0
MTEXT
  5
13F
330
133
100
AcDbEntity
  8
EBENE_1
 62
     0
100
AcDbMText
 10
1.190625
 20
4.0927900738
 30
0.0
 40
3.175
 41
0.0
 71
     1
 72
     1
  1

  7
SLDTEXTSTYLE0
 73
     1
 44
1.0
  0
MTEXT
  5
140
330
133
100
AcDbEntity
  8
EBENE_1
 62
     0
100
AcDbMText
 10
3.2925925916
 20
9.0316784373
 30
0.0
 40
3.175
 41
0.0
 71
     1
 72
     1
  1
3,00
  7
SLDTEXTSTYLE0
 73
     1
 44
1.0
  0
MTEXT
  5
141
330
133
100
AcDbEntity
  8
EBENE_1
 62
     0
100
AcDbMText
 10
2.1166665247
 20
4.0927898409
 30
0.0
 40
3.175
 41
0.0
 71
     1
 72
     1
  1
76,20
  7
SLDTEXTSTYLE0
 73
     1
 44
1.0
  0
MTEXT
  5
142
330
133
100
AcDbEntity
  8
EBENE_1
 62
     0
100
AcDbMText
 10
14.8313658863
 20
4.0927900738
 30
0.0
 40
3.175
 41
0.0
 71
     1
 72
     1
  1

  7
SLDTEXTSTYLE0
 73
     1
 44
1.0
  0
ENDBLK
  5
135
330
133
100
AcDbEntity
  8
0
100
AcDbBlockEnd
  0
BLOCK
  5
145
330
144
100
AcDbEntity
  8
0
100
AcDbBlockBegin
  2
SW_BLOCK_DIMENSION_18
 70
     0
 10
0.0
 20
0.0
 30
0.0
  3
SW_BLOCK_DIMENSION_18
  1

  0
SOLID
  5
147
330
144
100
AcDbEntity
  8
EBENE_1
 62
     0
100
AcDbTrace
 10
16.8675417449
 20
5.1887726877
 30
0.0
 11
16.3933906031
 21
2.1067902658
 31
0.0
 12
17.3416928867
 22
2.1067902658
 32
0.0
 13
17.3416928867
 23
2.1067902658
 33
0.0
  0
LINE
  5
148
330
144
100
AcDbEntity
  8
EBENE_1
 62
     0
100
AcDbLine
 10
3.5277780844
 20
9.671990294
 30
0.0
 11
2.4694447638
 21
9.671990294
 31
0.0
  0
LINE
  5
149
330
144
100
AcDbEntity
  8
EBENE_1
 62
     0
100
AcDbLine
 10
2.4694447638
 20
9.671990294
 30
0.0
 11
2.4694447638
 21
4.9388883635
 31
0.0
  0
LINE
  5
14A
330
144
100
AcDbEntity
  8
EBENE_1
 62
     0
100
AcDbLine
 10
2.4694447638
 20
4.9388883635
 30
0.0
 11
3.5277780844
 21
4.9388883635
 31
0.0
  0
LINE
  5
14B
330
144
100
AcDbEntity
  8
EBENE_1
 62
     0
100
AcDbLine
 10
11.7592596216
 20
9.671990294
 30
0.0
 11
12.8175929422
 21
9.671990294
 31
0.0
  0
LINE
  5
14C
330
144
100
AcDbEntity
  8
EBENE_1
 62
     0
100
AcDbLine
 10
12.8175929422
 20
9.671990294
 30
0.0
 11
12.8175929422
 21
4.9388883635
 31
0.0
  0
LINE
  5
14D
330
144
100
AcDbEntity
  8
EBENE_1
 62
     0
100
AcDbLine
 10
12.8175929422
 20
4.9388883635
 30
0.0
 11
11.7592596216
 21
4.9388883635
 31
0.0
  0
LINE
  5
14E
330
144
100
AcDbEntity
  8
EBENE_1
 62
     0
100
AcDbLine
 10
24.0750041956
 20
5.1887726877
 30
0.0
 11
15.2870379388
 21
5.1887726877
 31
0.0
  0
LINE
  5
14F
330
144
100
AcDbEntity
  8
EBENE_1
 62
     0
100
AcDbLine
 10
16.8675417449
 20
-20.2112273123
 30
0.0
 11
16.8675417449
 21
5.1887726877
 31
0.0
  0
MTEXT
  5
150
330
144
100
AcDbEntity
  8
EBENE_1
 62
     0
100
AcDbMText
 10
1.190625
 20
4.0927900738
 30
0.0
 40
3.175
 41
0.0
 71
     1
 72
     1
  1

  7
SLDTEXTSTYLE0
 73
     1
 44
1.0
  0
MTEXT
  5
151
330
144
100
AcDbEntity
  8
EBENE_1
 62
     0
100
AcDbMText
 10
3.5277780844
 20
9.0316784373
 30
0.0
 40
3.175
 41
0.0
 71
     1
 72
     1
  1
4,00
  7
SLDTEXTSTYLE0
 73
     1
 44
1.0
  0
MTEXT
  5
152
330
144
100
AcDbEntity
  8
EBENE_1
 62
     0
100
AcDbMText
 10
1.1759259505
 20
4.0927898409
 30
0.0
 40
3.175
 41
0.0
 71
     1
 72
     1
  1
101,60
  7
SLDTEXTSTYLE0
 73
     1
 44
1.0
  0
MTEXT
  5
153
330
144
100
AcDbEntity
  8
EBENE_1
 62
     0
100
AcDbMText
 10
15.3017368719
 20
4.0927900738
 30
0.0
 40
3.175
 41
0.0
 71
     1
 72
     1
  1

  7
SLDTEXTSTYLE0
 73
     1
 44
1.0
  0
ENDBLK
  5
146
330
144
100
AcDbEntity
  8
0
100
AcDbBlockEnd
  0
BLOCK
  5
156
330
155
100
AcDbEntity
  8
0
100
AcDbBlockBegin
  2
SW_BLOCK_DIMENSION_19
 70
     0
 10
0.0
 20
0.0
 30
0.0
  3
SW_BLOCK_DIMENSION_19
  1

  0
SOLID
  5
158
330
155
100
AcDbEntity
  8
EBENE_1
 62
     0
100
AcDbTrace
 10
16.3971707594
 20
5.1887726877
 30
0.0
 11
15.9230196175
 21
2.1067902658
 31
0.0
 12
16.8713219012
 22
2.1067902658
 32
0.0
 13
16.8713219012
 23
2.1067902658
 33
0.0
  0
LINE
  5
159
330
155
100
AcDbEntity
  8
EBENE_1
 62
     0
100
AcDbLine
 10
3.2925925916
 20
9.671990294
 30
0.0
 11
2.2342592711
 21
9.671990294
 31
0.0
  0
LINE
  5
15A
330
155
100
AcDbEntity
  8
EBENE_1
 62
     0
100
AcDbLine
 10
2.2342592711
 20
9.671990294
 30
0.0
 11
2.2342592711
 21
4.9388883635
 31
0.0
  0
LINE
  5
15B
330
155
100
AcDbEntity
  8
EBENE_1
 62
     0
100
AcDbLine
 10
2.2342592711
 20
4.9388883635
 30
0.0
 11
3.2925925916
 21
4.9388883635
 31
0.0
  0
LINE
  5
15C
330
155
100
AcDbEntity
  8
EBENE_1
 62
     0
100
AcDbLine
 10
11.5240741288
 20
9.671990294
 30
0.0
 11
12.5824074494
 21
9.671990294
 31
0.0
  0
LINE
  5
15D
330
155
100
AcDbEntity
  8
EBENE_1
 62
     0
100
AcDbLine
 10
12.5824074494
 20
9.671990294
 30
0.0
 11
12.5824074494
 21
4.9388883635
 31
0.0
  0
LINE
  5
15E
330
155
100
AcDbEntity
  8
EBENE_1
 62
     0
100
AcDbLine
 10
12.5824074494
 20
4.9388883635
 30
0.0
 11
11.5240741288
 21
4.9388883635
 31
0.0
  0
LINE
  5
15F
330
155
100
AcDbEntity
  8
EBENE_1
 62
     0
100
AcDbLine
 10
23.60463321
 20
5.1887726877
 30
0.0
 11
14.8166669533
 21
5.1887726877
 31
0.0
  0
LINE
  5
160
330
155
100
AcDbEntity
  8
EBENE_1
 62
     0
100
AcDbLine
 10
16.3971707594
 20
-20.2112273123
 30
0.0
 11
16.3971707594
 21
5.1887726877
 31
0.0
  0
MTEXT
  5
161
330
155
100
AcDbEntity
  8
EBENE_1
 62
     0
100
AcDbMText
 10
1.190625
 20
4.0927900738
 30
0.0
 40
3.175
 41
0.0
 71
     1
 72
     1
  1

  7
SLDTEXTSTYLE0
 73
     1
 44
1.0
  0
MTEXT
  5
162
330
155
100
AcDbEntity
  8
EBENE_1
 62
     0
100
AcDbMText
 10
3.2925925916
 20
9.0316784373
 30
0.0
 40
3.175
 41
0.0
 71
     1
 72
     1
  1
5,00
  7
SLDTEXTSTYLE0
 73
     1
 44
1.0
  0
MTEXT
  5
163
330
155
100
AcDbEntity
  8
EBENE_1
 62
     0
100
AcDbMText
 10
3.8805556251
 20
4.0927898409
 30
0.0
 40
3.175
 41
0.0
 71
     1
 72
     1
  1
127
  7
SLDTEXTSTYLE0
 73
     1
 44
1.0
  0
MTEXT
  5
164
330
155
100
AcDbEntity
  8
EBENE_1
 62
     0
100
AcDbMText
 10
14.8313658863
 20
4.0927900738
 30
0.0
 40
3.175
 41
0.0
 71
     1
 72
     1
  1

  7
SLDTEXTSTYLE0
 73
     1
 44
1.0
  0
ENDBLK
  5
157
330
155
100
AcDbEntity
  8
0
100
AcDbBlockEnd
  0
BLOCK
  5
167
330
166
100
AcDbEntity
  8
0
100
AcDbBlockBegin
  2
SW_NOTE_0
 70
     0
 10
0.0
 20
0.0
 30
0.0
  3
SW_NOTE_0
  1

  0
MTEXT
  5
169
330
166
100
AcDbEntity
  8
EBENE_1
 62
     0
100
AcDbMText
 10
6.7138020833
 20
4.7749217527
 30
0.0
 40
3.7041666667
 41
0.0
 71
     2
 72
     1
  1
(Inch)
  7
SLDTEXTSTYLE0
 73
     1
 44
1.0
  0
MTEXT
  5
16A
330
166
100
AcDbEntity
  8
EBENE_1
 62
     0
100
AcDbMText
 10
6.7309508326
 20
-1.1639672404
 30
0.0
 40
3.7041666667
 41
0.0
 71
     2
 72
     1
  1
mm
  7
SLDTEXTSTYLE0
 73
     1
 44
1.0
  0
ENDBLK
  5
168
330
166
100
AcDbEntity
  8
0
100
AcDbBlockEnd
  0
BLOCK
  5
172
330
171
100
AcDbEntity
  8
0
100
AcDbBlockBegin
  2
SW_NOTE_1
 70
     0
 10
0.0
 20
0.0
 30
0.0
  3
SW_NOTE_1
  1

  0
MTEXT
  5
174
330
171
100
AcDbEntity
  8
0
  6
Continuous
 62
     0
370
     0
100
AcDbMText
 10
19.893359375
 20
4.0927900738
 30
0.0
 40
3.175
 41
0.0
 71
     2
 72
     1
  1
ABP-Beyerle GmbH
  7
SLDTEXTSTYLE0
 73
     1
 44
1.0
  0
MTEXT
  5
175
330
171
100
AcDbEntity
  8
0
  6
Continuous
 62
     0
370
     0
100
AcDbMText
 10
20.6558884293
 20
-0.1405432084
 30
0.0
 40
3.175
 41
0.0
 71
     2
 72
     1
  1
Im Schollengarten 24b, 76646 Bruchsal
  7
SLDTEXTSTYLE0
 73
     1
 44
1.0
  0
MTEXT
  5
176
330
171
100
AcDbEntity
  8
0
  6
Continuous
 62
     0
370
     0
100
AcDbMText
 10
20.7863491923
 20
-4.3738764906
 30
0.0
 40
3.175
 41
0.0
 71
     2
 72
     1
  1
Tel. +49 (0)7251-9127-0, Fax. +49 (0)7251-9127-29
  7
SLDTEXTSTYLE0
 73
     1
 44
1.0
  0
MTEXT
  5
177
330
171
100
AcDbEntity
  8
0
  6
Continuous
 62
     0
370
     0
100
AcDbMText
 10
20.8392552227
 20
-8.6072097727
 30
0.0
 40
3.175
 41
0.0
 71
     2
 72
     1
  1
info@abp-beyerle.de, www.abp-beyerle.de
  7
SLDTEXTSTYLE0
 73
     1
 44
1.0
  0
ENDBLK
  5
173
330
171
100
AcDbEntity
  8
0
100
AcDbBlockEnd
  0
ENDSEC
  0
SECTION
  2
ENTITIES
  0
INSERT
  5
16D
330
1F
100
AcDbEntity
  8
EBENE_1
100
AcDbBlockReference
  2
Block1
 10
19.561342692
 20
-6.9223244521
 30
0.0
  0
MTEXT
  5
16F
330
1F
100
AcDbEntity
  8
0
  6
Continuous
 62
     7
370
     0
100
AcDbMText
 10
402.5
 20
14.7189135832
 30
0.0
 40
6.35
 41
0.0
 71
     1
 72
     1
  1
1:1
  7
SLDTEXTSTYLE1
 73
     1
 44
1.0
  0
MTEXT
  5
170
330
1F
100
AcDbEntity
  8
0
  6
Continuous
 62
     7
370
     0
100
AcDbMText
 10
168.4090458961
 20
14.7189131175
 30
0.0
 40
6.35
 41
0.0
 71
     1
 72
     1
  1
USU45DS-1800EF
  7
SLDTEXTSTYLE1
 73
     1
 44
1.0
  0
INSERT
  5
178
330
1F
100
AcDbEntity
  8
0
  6
Continuous
 62
     7
370
     0
100
AcDbBlockReference
  2
SW_NOTE_1
 10
35.4202146835
 20
20.1681939512
 30
0.0
  0
LINE
  5
179
330
1F
100
AcDbEntity
  8
0
  6
Continuous
 62
     7
370
    15
100
AcDbLine
 10
1080.4890460259
 20
2157.3642033058
 30
0.0
 11
1075.3890342003
 21
2157.3642033058
 31
0.0
  0
LINE
  5
17A
330
1F
100
AcDbEntity
  8
0
  6
Continuous
 62
     7
370
    15
100
AcDbLine
 10
1075.3890342003
 20
2139.1642034891
 30
0.0
 11
1080.4890460259
 21
2139.1642034891
 31
0.0
  0
LINE
  5
17B
330
1F
100
AcDbEntity
  8
0
  6
Continuous
 62
     7
370
    15
100
AcDbLine
 10
1080.4890460259
 20
2139.1642034891
 30
0.0
 11
1080.6889600045
 21
2139.3642031494
 31
0.0
  0
LINE
  5
17C
330
1F
100
AcDbEntity
  8
0
  6
Continuous
 62
     7
370
    15
100
AcDbLine
 10
1080.6889600045
 20
2157.1642031799
 30
0.0
 11
1080.4890460259
 21
2157.3642033058
 31
0.0
  0
LINE
  5
17D
330
1F
100
AcDbEntity
  8
0
  6
Continuous
 62
     7
370
    15
100
AcDbLine
 10
1075.3890342003
 20
2157.3642033058
 30
0.0
 11
1075.1890010125
 21
2157.1642031799
 31
0.0
  0
LINE
  5
17E
330
1F
100
AcDbEntity
  8
0
  6
Continuous
 62
     7
370
    15
100
AcDbLine
 10
1075.1890010125
 20
2139.3642031494
 30
0.0
 11
1075.3890342003
 21
2139.1642034891
 31
0.0
  0
LINE
  5
17F
330
1F
100
AcDbEntity
  8
0
  6
Continuous
 62
     7
370
    15
100
AcDbLine
 10
-578.1109825784
 20
2139.1642034891
 30
0.0
 11
-573.0109819287
 21
2139.1642034891
 31
0.0
  0
LINE
  5
180
330
1F
100
AcDbEntity
  8
0
  6
Continuous
 62
     7
370
    15
100
AcDbLine
 10
-573.0109819287
 20
2157.3642033058
 30
0.0
 11
-578.1109825784
 21
2157.3642033058
 31
0.0
  0
LINE
  5
181
330
1F
100
AcDbEntity
  8
0
  6
Continuous
 62
     7
370
    15
100
AcDbLine
 10
-578.1109825784
 20
2157.3642033058
 30
0.0
 11
-578.3109822386
 21
2157.1642031799
 31
0.0
  0
LINE
  5
182
330
1F
100
AcDbEntity
  8
0
  6
Continuous
 62
     7
370
    15
100
AcDbLine
 10
-578.3109822386
 20
2139.3642031494
 30
0.0
 11
-578.1109825784
 21
2139.1642034891
 31
0.0
  0
LINE
  5
183
330
1F
100
AcDbEntity
  8
0
  6
Continuous
 62
     7
370
    15
100
AcDbLine
 10
-573.0109819287
 20
2139.1642034891
 30
0.0
 11
-572.8109822684
 21
2139.3642031494
 31
0.0
  0
LINE
  5
184
330
1F
100
AcDbEntity
  8
0
  6
Continuous
 62
     7
370
    15
100
AcDbLine
 10
-572.8109822684
 20
2157.1642031799
 30
0.0
 11
-573.0109819287
 21
2157.3642033058
 31
0.0
  0
LINE
  5
185
330
1F
100
AcDbEntity
  8
0
  6
Continuous
 62
     7
370
    15
100
AcDbLine
 10
1075.1890010125
 20
2154.2142030689
 30
0.0
 11
1050.4890746361
 21
2154.2142030689
 31
0.0
  0
LINE
  5
186
330
1F
100
AcDbEntity
  8
0
  6
Continuous
 62
     7
370
    15
100
AcDbLine
 10
1050.4890746361
 20
2142.3142027947
 30
0.0
 11
1075.1890010125
 21
2142.3142027947
 31
0.0
  0
ARC
  5
187
330
1F
100
AcDbEntity
  8
0
  6
Continuous
 62
     7
370
    15
100
AcDbCircle
 10
1050.4890191323
 20
2142.6142033639
 30
0.0
 40
0.2999999999997272
100
AcDbArc
 50
180.0
 51
270.0
  0
ARC
  5
188
330
1F
100
AcDbEntity
  8
0
  6
Continuous
 62
     7
370
    15
100
AcDbCircle
 10
1050.4890191323
 20
2153.9142033639
 30
0.0
 40
0.2999999999997272
100
AcDbArc
 50
90.0
 51
180.0
  0
LINE
  5
189
330
1F
100
AcDbEntity
  8
0
  6
Continuous
 62
     7
370
    15
100
AcDbLine
 10
-572.8109822684
 20
2142.3142027947
 30
0.0
 11
-564.1109802836
 21
2142.3142027947
 31
0.0
  0
LINE
  5
18A
330
1F
100
AcDbEntity
  8
0
  6
Continuous
 62
     7
370
    15
100
AcDbLine
 10
-564.1109802836
 20
2154.2142030689
 30
0.0
 11
-572.8109822684
 21
2154.2142030689
 31
0.0
  0
ARC
  5
18B
330
1F
100
AcDbEntity
  8
0
  6
Continuous
 62
     7
370
    15
100
AcDbCircle
 10
-564.1109808677
 20
2153.9142033639
 30
0.0
 40
0.3000000000000682
100
AcDbArc
 50
0.0
 51
90.0
  0
ARC
  5
18C
330
1F
100
AcDbEntity
  8
0
  6
Continuous
 62
     7
370
    15
100
AcDbCircle
 10
-564.1109808677
 20
2142.6142033639
 30
0.0
 40
0.3000000000000682
100
AcDbArc
 50
270.0
 51
0.0
  0
LINE
  5
18D
330
1F
100
AcDbEntity
  8
0
  6
Continuous
 62
     7
370
    15
100
AcDbLine
 10
1048.1890506035
 20
2143.2642039749
 30
0.0
 11
1050.1890248543
 21
2143.2642039749
 31
0.0
  0
LINE
  5
18E
330
1F
100
AcDbEntity
  8
0
  6
Continuous
 62
     7
370
    15
100
AcDbLine
 10
1050.1890248543
 20
2153.2642037514
 30
0.0
 11
1048.1890506035
 21
2153.2642037514
 31
0.0
  0
LINE
  5
18F
330
1F
100
AcDbEntity
  8
0
  6
Continuous
 62
     7
370
    15
100
AcDbLine
 10
-561.810982328
 20
2153.2642037514
 30
0.0
 11
-563.8109826558
 21
2153.2642037514
 31
0.0
  0
LINE
  5
190
330
1F
100
AcDbEntity
  8
0
  6
Continuous
 62
     7
370
    15
100
AcDbLine
 10
-563.8109826558
 20
2143.2642039749
 30
0.0
 11
-561.810982328
 21
2143.2642039749
 31
0.0
  0
LINE
  5
191
330
1F
100
AcDbEntity
  8
0
  6
Continuous
 62
     7
370
    15
100
AcDbLine
 10
1110.4165381676
 20
2139.7892028931
 30
0.0
 11
1120.8890742547
 21
2139.7892028931
 31
0.0
  0
LINE
  5
192
330
1F
100
AcDbEntity
  8
0
  6
Continuous
 62
     7
370
    15
100
AcDbLine
 10
1120.8890742547
 20
2156.7392034362
 30
0.0
 11
1120.682126928
 21
2156.7392034362
 31
0.0
  0
LINE
  5
193
330
1F
100
AcDbEntity
  8
0
  6
Continuous
 62
     7
370
    15
100
AcDbLine
 10
1080.6889600045
 20
2139.7892028931
 30
0.0
 11
1090.9614629037
 21
2139.7892028931
 31
0.0
  0
LINE
  5
194
330
1F
100
AcDbEntity
  8
0
  6
Continuous
 62
     7
370
    15
100
AcDbLine
 10
1080.6958741433
 20
2156.7392034362
 30
0.0
 11
1080.6889600045
 21
2156.7392034362
 31
0.0
  0
LINE
  5
195
330
1F
100
AcDbEntity
  8
0
  6
Continuous
 62
     7
370
    15
100
AcDbLine
 10
1120.8890742547
 20
2139.7892028931
 30
0.0
 11
1121.1890048272
 21
2140.0892042461
 31
0.0
  0
LINE
  5
196
330
1F
100
AcDbEntity
  8
0
  6
Continuous
 62
     7
370
    15
100
AcDbLine
 10
1121.1890048272
 20
2156.4392034802
 30
0.0
 11
1120.8890742547
 21
2156.7392034362
 31
0.0
  0
LINE
  5
197
330
1F
100
AcDbEntity
  8
0
  6
Continuous
 62
     7
370
    15
100
AcDbLine
 10
-578.3109822386
 20
2156.7392034362
 30
0.0
 11
-578.3178740257
 21
2156.7392034362
 31
0.0
  0
LINE
  5
198
330
1F
100
AcDbEntity
  8
0
  6
Continuous
 62
     7
370
    15
100
AcDbLine
 10
-588.5834776872
 20
2139.7892028931
 30
0.0
 11
-578.3109822386
 21
2139.7892028931
 31
0.0
  0
LINE
  5
199
330
1F
100
AcDbEntity
  8
0
  6
Continuous
 62
     7
370
    15
100
AcDbLine
 10
-618.3040895575
 20
2156.7392034362
 30
0.0
 11
-618.5109772795
 21
2156.7392034362
 31
0.0
  0
LINE
  5
19A
330
1F
100
AcDbEntity
  8
0
  6
Continuous
 62
     7
370
    15
100
AcDbLine
 10
-618.5109772795
 20
2139.7892028931
 30
0.0
 11
-608.038485896
 21
2139.7892028931
 31
0.0
  0
LINE
  5
19B
330
1F
100
AcDbEntity
  8
0
  6
Continuous
 62
     7
370
    15
100
AcDbLine
 10
-618.5109772795
 20
2156.7392034362
 30
0.0
 11
-618.8109823578
 21
2156.4392034802
 31
0.0
  0
LINE
  5
19C
330
1F
100
AcDbEntity
  8
0
  6
Continuous
 62
     7
370
    15
100
AcDbLine
 10
-618.8109823578
 20
2140.0892042461
 30
0.0
 11
-618.5109772795
 21
2139.7892028931
 31
0.0
  0
ARC
  5
19D
330
1F
100
AcDbEntity
  8
0
  6
Continuous
 62
     7
370
    15
100
AcDbCircle
 10
1042.0784202283
 20
2149.4365410618
 30
0.0
 40
4.999999999999728
100
AcDbArc
 50
265.7108466712
 51
299.125466729
  0
ARC
  5
19E
330
1F
100
AcDbEntity
  8
0
  6
Continuous
 62
     7
370
    15
100
AcDbCircle
 10
1042.0784202283
 20
2145.0918656661
 30
0.0
 40
5.000000000000182
100
AcDbArc
 50
60.874533271
 51
94.2891533288
  0
LINE
  5
19F
330
1F
100
AcDbEntity
  8
0
  6
Continuous
 62
     7
370
    15
100
AcDbLine
 10
1041.7044228798
 20
2150.0778623763
 30
0.0
 11
1035.1141757256
 21
2149.5835936534
 31
0.0
  0
LINE
  5
1A0
330
1F
100
AcDbEntity
  8
0
  6
Continuous
 62
     7
370
    15
100
AcDbLine
 10
1035.1141757256
 20
2144.9448128137
 30
0.0
 11
1041.7044228798
 21
2144.4505450222
 31
0.0
  0
ARC
  5
1A1
330
1F
100
AcDbEntity
  8
0
  6
Continuous
 62
     7
370
    15
100
AcDbCircle
 10
1035.1890191323
 20
2148.5863948079
 30
0.0
 40
1.0
100
AcDbArc
 50
94.2891533288
 51
180.0
  0
ARC
  5
1A2
330
1F
100
AcDbEntity
  8
0
  6
Continuous
 62
     7
370
    15
100
AcDbCircle
 10
1035.1890191323
 20
2145.9420119199
 30
0.0
 40
1.000000000000227
100
AcDbArc
 50
180.0
 51
265.7108466712
  0
ARC
  5
1A3
330
1F
100
AcDbEntity
  8
0
  6
Continuous
 62
     7
370
    15
100
AcDbCircle
 10
1047.1890191323
 20
2154.2642033639
 30
0.0
 40
5.500000000000106
100
AcDbArc
 50
240.874533271
 51
270.0
  0
ARC
  5
1A4
330
1F
100
AcDbEntity
  8
0
  6
Continuous
 62
     7
370
    15
100
AcDbCircle
 10
1047.1890191323
 20
2140.2642033639
 30
0.0
 40
5.500000000000106
100
AcDbArc
 50
90.0
 51
119.125466729
  0
LINE
  5
1A5
330
1F
100
AcDbEntity
  8
0
  6
Continuous
 62
     7
370
    15
100
AcDbLine
 10
1048.1890506035
 20
2148.7642030138
 30
0.0
 11
1047.1890038735
 21
2148.7642030138
 31
0.0
  0
LINE
  5
1A6
330
1F
100
AcDbEntity
  8
0
  6
Continuous
 62
     7
370
    15
100
AcDbLine
 10
1047.1890038735
 20
2145.7642034533
 30
0.0
 11
1048.1890506035
 21
2145.7642034533
 31
0.0
  0
ARC
  5
1A7
330
1F
100
AcDbEntity
  8
0
  6
Continuous
 62
     7
370
    15
100
AcDbCircle
 10
-555.2193077809
 20
2145.2642033639
 30
0.0
 40
5.000000000000369
100
AcDbArc
 50
58.9972808661
 51
90.0
  0
ARC
  5
1A8
330
1F
100
AcDbEntity
  8
0
  6
Continuous
 62
     7
370
    15
100
AcDbCircle
 10
-555.2193077809
 20
2149.2642033639
 30
0.0
 40
4.99999999999959
100
AcDbArc
 50
270.0
 51
301.0027191339
  0
LINE
  5
1A9
330
1F
100
AcDbEntity
  8
0
  6
Continuous
 62
     7
370
    15
100
AcDbLine
 10
-555.2193083876
 20
2150.2642032596
 30
0.0
 11
-561.810982328
 21
2150.2642032596
 31
0.0
  0
LINE
  5
1AA
330
1F
100
AcDbEntity
  8
0
  6
Continuous
 62
     7
370
    15
100
AcDbLine
 10
-561.810982328
 20
2144.2642041388
 30
0.0
 11
-555.2193083876
 21
2144.2642041388
 31
0.0
  0
ARC
  5
1AB
330
1F
100
AcDbEntity
  8
0
  6
Continuous
 62
     7
370
    15
100
AcDbCircle
 10
-539.7003819638
 20
2145.0918656661
 30
0.0
 40
5.000000000000173
100
AcDbArc
 50
85.7108466712
 51
119.125466729
  0
ARC
  5
1AC
330
1F
100
AcDbEntity
  8
0
  6
Continuous
 62
     7
370
    15
100
AcDbCircle
 10
-539.7003819638
 20
2149.4365410618
 30
0.0
 40
4.999999999999719
100
AcDbArc
 50
240.874533271
 51
274.2891533288
  0
LINE
  5
1AD
330
1F
100
AcDbEntity
  8
0
  6
Continuous
 62
     7
370
    15
100
AcDbLine
 10
-539.3264320755
 20
2144.4505450222
 30
0.0
 11
-532.7361905092
 21
2144.9448128137
 31
0.0
  0
LINE
  5
1AE
330
1F
100
AcDbEntity
  8
0
  6
Continuous
 62
     7
370
    15
100
AcDbLine
 10
-532.7361905092
 20
2149.5835936534
 30
0.0
 11
-539.3264320755
 21
2150.0778623763
 31
0.0
  0
ARC
  5
1AF
330
1F
100
AcDbEntity
  8
0
  6
Continuous
 62
     7
370
    15
100
AcDbCircle
 10
-532.8109808677
 20
2145.9420119199
 30
0.0
 40
1.0
100
AcDbArc
 50
274.2891533288
 51
0.0
  0
ARC
  5
1B0
330
1F
100
AcDbEntity
  8
0
  6
Continuous
 62
     7
370
    15
100
AcDbCircle
 10
-532.8109808677
 20
2148.5863948079
 30
0.0
 40
1.0
100
AcDbArc
 50
0.0
 51
85.7108466712
  0
ARC
  5
1B1
330
1F
100
AcDbEntity
  8
0
  6
Continuous
 62
     7
370
    15
100
AcDbCircle
 10
-549.8109808677
 20
2140.2642033639
 30
0.0
 40
5.500000000000025
100
AcDbArc
 50
90.0
 51
121.0027191339
  0
ARC
  5
1B2
330
1F
100
AcDbEntity
  8
0
  6
Continuous
 62
     7
370
    15
100
AcDbCircle
 10
-549.8109808677
 20
2154.2642033639
 30
0.0
 40
5.500000000000025
100
AcDbArc
 50
238.9972808661
 51
270.0
  0
ARC
  5
1B3
330
1F
100
AcDbEntity
  8
0
  6
Continuous
 62
     7
370
    15
100
AcDbCircle
 10
-544.8109808677
 20
2140.2642033639
 30
0.0
 40
5.500000000000217
100
AcDbArc
 50
60.874533271
 51
90.0
  0
ARC
  5
1B4
330
1F
100
AcDbEntity
  8
0
  6
Continuous
 62
     7
370
    15
100
AcDbCircle
 10
-544.8109808677
 20
2154.2642033639
 30
0.0
 40
5.500000000000217
100
AcDbArc
 50
270.0
 51
299.125466729
  0
LINE
  5
1B5
330
1F
100
AcDbEntity
  8
0
  6
Continuous
 62
     7
370
    15
100
AcDbLine
 10
-549.8109803611
 20
2145.7642034533
 30
0.0
 11
-544.8109814042
 21
2145.7642034533
 31
0.0
  0
LINE
  5
1B6
330
1F
100
AcDbEntity
  8
0
  6
Continuous
 62
     7
370
    15
100
AcDbLine
 10
-544.8109814042
 20
2148.7642030138
 30
0.0
 11
-549.8109803611
 21
2148.7642030138
 31
0.0
  0
ARC
  5
1B7
330
1F
100
AcDbEntity
  8
0
  6
Continuous
 62
     7
370
    15
100
AcDbCircle
 10
218.2149732376
 20
73.1356919845
 30
0.0
 40
1.500000000000057
100
AcDbArc
 50
270.0
 51
359.0
  0
ARC
  5
1B8
330
1F
100
AcDbEntity
  8
0
  6
Continuous
 62
     7
370
    15
100
AcDbCircle
 10
249.163065027
 20
73.1356919845
 30
0.0
 40
1.500000000000057
100
AcDbArc
 50
181.0
 51
270.0
  0
LINE
  5
1B9
330
1F
100
AcDbEntity
  8
0
  6
Continuous
 62
     7
370
    15
100
AcDbLine
 10
219.7588152176
 20
75.6357663217
 30
0.0
 11
219.7147673852
 21
73.1094830575
 31
0.0
  0
LINE
  5
1BA
330
1F
100
AcDbEntity
  8
0
  6
Continuous
 62
     7
370
    15
100
AcDbLine
 10
247.663266111
 20
73.1094830575
 30
0.0
 11
247.6192182786
 21
75.6357663217
 31
0.0
  0
LINE
  5
1BB
330
1F
100
AcDbEntity
  8
0
  6
Continuous
 62
     7
370
    15
100
AcDbLine
 10
-647.8109740728
 20
2149.7642031777
 30
0.0
 11
-618.8109823578
 21
2149.7642031777
 31
0.0
  0
LINE
  5
1BC
330
1F
100
AcDbEntity
  8
0
  6
Continuous
 62
     7
370
    15
100
AcDbLine
 10
-553.0398571008
 20
2149.7642031777
 30
0.0
 11
-541.4806240314
 21
2149.7642031777
 31
0.0
  0
LINE
  5
1BD
330
1F
100
AcDbEntity
  8
0
  6
Continuous
 62
     7
370
    15
100
AcDbLine
 10
-535.1443150156
 20
2149.7642031777
 30
0.0
 11
-501.3341465109
 21
2149.7642031777
 31
0.0
  0
LINE
  5
1BE
330
1F
100
AcDbEntity
  8
0
  6
Continuous
 62
     7
370
    15
100
AcDbLine
 10
-471.3341453188
 20
2149.7642031777
 30
0.0
 11
198.6658639199
 21
2149.7642031777
 31
0.0
  0
LINE
  5
1BF
330
1F
100
AcDbEntity
  8
0
  6
Continuous
 62
     7
370
    15
100
AcDbLine
 10
228.6658353097
 20
2149.7642031777
 30
0.0
 11
1037.5223225838
 21
2149.7642031777
 31
0.0
  0
LINE
  5
1C0
330
1F
100
AcDbEntity
  8
0
  6
Continuous
 62
     7
370
    15
100
AcDbLine
 10
1043.8586539513
 20
2149.7642031777
 30
0.0
 11
1048.1890506035
 21
2149.7642031777
 31
0.0
  0
LINE
  5
1C1
330
1F
100
AcDbEntity
  8
0
  6
Continuous
 62
     7
370
    15
100
AcDbLine
 10
1121.1890048272
 20
2149.7642031777
 30
0.0
 11
1150.1890486962
 21
2149.7642031777
 31
0.0
  0
LINE
  5
1C2
330
1F
100
AcDbEntity
  8
0
  6
Continuous
 62
     7
370
    15
100
AcDbLine
 10
1150.1890486962
 20
2174.7642035502
 30
0.0
 11
1110.3714770562
 21
2174.7642035502
 31
0.0
  0
LINE
  5
1C3
330
1F
100
AcDbEntity
  8
0
  6
Continuous
 62
     7
370
    15
100
AcDbLine
 10
1091.0065240151
 20
2174.7642035502
 30
0.0
 11
228.6658353097
 21
2174.7642035502
 31
0.0
  0
LINE
  5
1C4
330
1F
100
AcDbEntity
  8
0
  6
Continuous
 62
     7
370
    15
100
AcDbLine
 10
198.6658639199
 20
2174.7642035502
 30
0.0
 11
-471.3341453188
 21
2174.7642035502
 31
0.0
  0
LINE
  5
1C5
330
1F
100
AcDbEntity
  8
0
  6
Continuous
 62
     7
370
    15
100
AcDbLine
 10
-501.3341465109
 20
2174.7642035502
 30
0.0
 11
-588.6285238975
 21
2174.7642035502
 31
0.0
  0
LINE
  5
1C6
330
1F
100
AcDbEntity
  8
0
  6
Continuous
 62
     7
370
    15
100
AcDbLine
 10
-607.9934396857
 20
2174.7642035502
 30
0.0
 11
-647.8109740728
 21
2174.7642035502
 31
0.0
  0
LINE
  5
1C7
330
1F
100
AcDbEntity
  8
0
  6
Continuous
 62
     7
370
    15
100
AcDbLine
 10
-647.8109740728
 20
2174.7642035502
 30
0.0
 11
-648.8109760993
 21
2173.7642033863
 31
0.0
  0
LINE
  5
1C8
330
1F
100
AcDbEntity
  8
0
  6
Continuous
 62
     7
370
    15
100
AcDbLine
 10
-648.8109760993
 20
2150.7642033416
 30
0.0
 11
-647.8109740728
 21
2149.7642031777
 31
0.0
  0
LINE
  5
1C9
330
1F
100
AcDbEntity
  8
0
  6
Continuous
 62
     7
370
    15
100
AcDbLine
 10
1150.1890486962
 20
2149.7642031777
 30
0.0
 11
1151.1889762169
 21
2150.7642033416
 31
0.0
  0
LINE
  5
1CA
330
1F
100
AcDbEntity
  8
0
  6
Continuous
 62
     7
370
    15
100
AcDbLine
 10
1151.1889762169
 20
2173.7642033863
 30
0.0
 11
1150.1890486962
 21
2174.7642035502
 31
0.0
  0
LINE
  5
1CB
330
1F
100
AcDbEntity
  8
0
  6
Continuous
 62
     7
370
    15
100
AcDbLine
 10
1075.3890342003
 20
2157.3642033058
 30
0.0
 11
1075.3890342003
 21
2139.1642034891
 31
0.0
  0
LINE
  5
1CC
330
1F
100
AcDbEntity
  8
0
  6
Continuous
 62
     7
370
    15
100
AcDbLine
 10
1080.4890460259
 20
2139.1642034891
 30
0.0
 11
1080.4890460259
 21
2157.3642033058
 31
0.0
  0
LINE
  5
1CD
330
1F
100
AcDbEntity
  8
0
  6
Continuous
 62
     7
370
    15
100
AcDbLine
 10
1080.6889600045
 20
2157.1642031799
 30
0.0
 11
1080.6889600045
 21
2139.3642031494
 31
0.0
  0
LINE
  5
1CE
330
1F
100
AcDbEntity
  8
0
  6
Continuous
 62
     7
370
    15
100
AcDbLine
 10
1075.1890010125
 20
2139.3642031494
 30
0.0
 11
1075.1890010125
 21
2157.1642031799
 31
0.0
  0
LINE
  5
1CF
330
1F
100
AcDbEntity
  8
0
  6
Continuous
 62
     7
370
    15
100
AcDbLine
 10
-573.0109819287
 20
2155.3443765174
 30
0.0
 11
-573.0109819287
 21
2157.3642033058
 31
0.0
  0
LINE
  5
1D0
330
1F
100
AcDbEntity
  8
0
  6
Continuous
 62
     7
370
    15
100
AcDbLine
 10
-573.0109819287
 20
2139.1642034891
 30
0.0
 11
-573.0109819287
 21
2155.3443765174
 31
0.0
  0
LINE
  5
1D1
330
1F
100
AcDbEntity
  8
0
  6
Continuous
 62
     7
370
    15
100
AcDbLine
 10
-578.1109825784
 20
2155.3443765174
 30
0.0
 11
-578.1109825784
 21
2139.1642034891
 31
0.0
  0
LINE
  5
1D2
330
1F
100
AcDbEntity
  8
0
  6
Continuous
 62
     7
370
    15
100
AcDbLine
 10
-578.1109825784
 20
2157.3642033058
 30
0.0
 11
-578.1109825784
 21
2155.3443765174
 31
0.0
  0
LINE
  5
1D3
330
1F
100
AcDbEntity
  8
0
  6
Continuous
 62
     7
370
    15
100
AcDbLine
 10
-578.3109822386
 20
2155.1887683476
 30
0.0
 11
-578.3109822386
 21
2157.1642031799
 31
0.0
  0
LINE
  5
1D4
330
1F
100
AcDbEntity
  8
0
  6
Continuous
 62
     7
370
    15
100
AcDbLine
 10
-578.3109822386
 20
2139.3642031494
 30
0.0
 11
-578.3109822386
 21
2155.1887683476
 31
0.0
  0
LINE
  5
1D5
330
1F
100
AcDbEntity
  8
0
  6
Continuous
 62
     7
370
    15
100
AcDbLine
 10
-572.8109822684
 20
2155.1887683476
 30
0.0
 11
-572.8109822684
 21
2139.3642031494
 31
0.0
  0
LINE
  5
1D6
330
1F
100
AcDbEntity
  8
0
  6
Continuous
 62
     7
370
    15
100
AcDbLine
 10
-572.8109822684
 20
2157.1642031799
 30
0.0
 11
-572.8109822684
 21
2155.1887683476
 31
0.0
  0
LINE
  5
1D7
330
1F
100
AcDbEntity
  8
0
  6
Continuous
 62
     7
370
    15
100
AcDbLine
 10
1050.1890248543
 20
2142.6142041477
 30
0.0
 11
1050.1890248543
 21
2153.9142035785
 31
0.0
  0
LINE
  5
1D8
330
1F
100
AcDbEntity
  8
0
  6
Continuous
 62
     7
370
    15
100
AcDbLine
 10
-563.8109826558
 20
2153.9142035785
 30
0.0
 11
-563.8109826558
 21
2142.6142041477
 31
0.0
  0
LINE
  5
1D9
330
1F
100
AcDbEntity
  8
0
  6
Continuous
 62
     7
370
    15
100
AcDbLine
 10
1048.1890506035
 20
2145.49984009
 30
0.0
 11
1048.1890506035
 21
2143.2642039749
 31
0.0
  0
LINE
  5
1DA
330
1F
100
AcDbEntity
  8
0
  6
Continuous
 62
     7
370
    15
100
AcDbLine
 10
1048.1890506035
 20
2153.2642037514
 30
0.0
 11
1048.1890506035
 21
2145.49984009
 31
0.0
  0
LINE
  5
1DB
330
1F
100
AcDbEntity
  8
0
  6
Continuous
 62
     7
370
    15
100
AcDbLine
 10
-561.810982328
 20
2146.633717874
 30
0.0
 11
-561.810982328
 21
2153.2642037514
 31
0.0
  0
LINE
  5
1DC
330
1F
100
AcDbEntity
  8
0
  6
Continuous
 62
     7
370
    15
100
AcDbLine
 10
-561.810982328
 20
2143.2642039749
 30
0.0
 11
-561.810982328
 21
2146.633717874
 31
0.0
  0
LINE
  5
1DD
330
1F
100
AcDbEntity
  8
0
  6
Continuous
 62
     7
370
    15
100
AcDbLine
 10
1120.8890742547
 20
2139.7892028931
 30
0.0
 11
1120.8890742547
 21
2156.7392034362
 31
0.0
  0
LINE
  5
1DE
330
1F
100
AcDbEntity
  8
0
  6
Continuous
 62
     7
370
    15
100
AcDbLine
 10
1121.1890048272
 20
2156.4392034802
 30
0.0
 11
1121.1890048272
 21
2140.0892042461
 31
0.0
  0
LINE
  5
1DF
330
1F
100
AcDbEntity
  8
0
  6
Continuous
 62
     7
370
    15
100
AcDbLine
 10
-618.5109772795
 20
2156.7392034362
 30
0.0
 11
-618.5109772795
 21
2139.7892028931
 31
0.0
  0
LINE
  5
1E0
330
1F
100
AcDbEntity
  8
0
  6
Continuous
 62
     7
370
    15
100
AcDbLine
 10
-618.8109823578
 20
2140.0892042461
 30
0.0
 11
-618.8109823578
 21
2156.4392034802
 31
0.0
  0
CIRCLE
  5
1E1
330
1F
100
AcDbEntity
  8
0
  6
Continuous
 62
     7
370
    15
100
AcDbCircle
 10
-589.3222535836
 20
2157.7145163801
 30
0.0
 40
1.299999999999968
  0
CIRCLE
  5
1E2
330
1F
100
AcDbEntity
  8
0
  6
Continuous
 62
     7
370
    15
100
AcDbCircle
 10
-598.3109808677
 20
2157.2642033639
 30
0.0
 40
18.00000000000004
  0
CIRCLE
  5
1E3
330
1F
100
AcDbEntity
  8
0
  6
Continuous
 62
     7
370
    15
100
AcDbCircle
 10
-597.8606678515
 20
2148.2754760799
 30
0.0
 40
1.299999999999968
  0
CIRCLE
  5
1E4
330
1F
100
AcDbEntity
  8
0
  6
Continuous
 62
     7
370
    15
100
AcDbCircle
 10
-598.7612938839
 20
2166.252930648
 30
0.0
 40
1.300000000000059
  0
CIRCLE
  5
1E5
330
1F
100
AcDbEntity
  8
0
  6
Continuous
 62
     7
370
    15
100
AcDbCircle
 10
-607.2997081518
 20
2156.8138903478
 30
0.0
 40
1.299999999999854
  0
CIRCLE
  5
1E6
330
1F
100
AcDbEntity
  8
0
  6
Continuous
 62
     7
370
    15
100
AcDbCircle
 10
-598.3109808677
 20
2157.2642033639
 30
0.0
 40
20.00000000000015
  0
CIRCLE
  5
1E7
330
1F
100
AcDbEntity
  8
0
  6
Continuous
 62
     7
370
    15
100
AcDbCircle
 10
1100.6890191323
 20
2157.2642033639
 30
0.0
 40
18.00000000000023
  0
CIRCLE
  5
1E8
330
1F
100
AcDbEntity
  8
0
  6
Continuous
 62
     7
370
    15
100
AcDbCircle
 10
1100.6890191323
 20
2157.2642033639
 30
0.0
 40
20.00000000000014
  0
CIRCLE
  5
1E9
330
1F
100
AcDbEntity
  8
0
  6
Continuous
 62
     7
370
    15
100
AcDbCircle
 10
1108.8142882225
 20
2161.1346041457
 30
0.0
 40
1.300000000000071
  0
CIRCLE
  5
1EA
330
1F
100
AcDbEntity
  8
0
  6
Continuous
 62
     7
370
    15
100
AcDbCircle
 10
1096.8186183505
 20
2165.3894724541
 30
0.0
 40
1.300000000000266
  0
CIRCLE
  5
1EB
330
1F
100
AcDbEntity
  8
0
  6
Continuous
 62
     7
370
    15
100
AcDbCircle
 10
1092.5637500421
 20
2153.3938025821
 30
0.0
 40
1.300000000000071
  0
CIRCLE
  5
1EC
330
1F
100
AcDbEntity
  8
0
  6
Continuous
 62
     7
370
    15
100
AcDbCircle
 10
1104.5594199141
 20
2149.1389342737
 30
0.0
 40
1.300000000000266
  0
LINE
  5
1ED
330
1F
100
AcDbEntity
  8
0
  6
Continuous
 62
     7
370
    15
100
AcDbLine
 10
1034.1889924294
 20
2145.9420115593
 30
0.0
 11
1034.1889924294
 21
2148.5863949078
 31
0.0
  0
LINE
  5
1EE
330
1F
100
AcDbEntity
  8
0
  6
Continuous
 62
     7
370
    15
100
AcDbLine
 10
-531.8109811359
 20
2148.5863949078
 30
0.0
 11
-531.8109811359
 21
2145.9420115593
 31
0.0
  0
ARC
  5
1EF
330
1F
100
AcDbEntity
  8
0
  6
Continuous
 62
     7
370
    15
100
AcDbCircle
 10
213.6658533869
 20
2200.6356741273
 30
0.0
 40
28.94999999999994
100
AcDbArc
 50
301.2072148381
 51
223.6746648299
  0
ARC
  5
1F0
330
1F
100
AcDbEntity
  8
0
  6
Continuous
 62
     7
370
    15
100
AcDbCircle
 10
213.6658533869
 20
2200.6356741273
 30
0.0
 40
28.94999999999996
100
AcDbArc
 50
223.6746648299
 51
238.7927851619
  0
ARC
  5
1F1
330
1F
100
AcDbEntity
  8
0
  6
Continuous
 62
     7
370
    15
100
AcDbCircle
 10
-486.3341466131
 20
2200.6356741273
 30
0.0
 40
28.95000000000042
100
AcDbArc
 50
301.2072148381
 51
223.6746648299
  0
ARC
  5
1F2
330
1F
100
AcDbEntity
  8
0
  6
Continuous
 62
     7
370
    15
100
AcDbCircle
 10
-486.3341466131
 20
2200.6356741273
 30
0.0
 40
28.95000000000027
100
AcDbArc
 50
223.6746648299
 51
238.7927851619
  0
CIRCLE
  5
1F3
330
1F
100
AcDbEntity
  8
0
  6
Continuous
 62
     7
370
    15
100
AcDbCircle
 10
213.6658533869
 20
2140.6356741273
 30
0.0
 40
13.00000000000045
  0
CIRCLE
  5
1F4
330
1F
100
AcDbEntity
  8
0
  6
Continuous
 62
     7
370
    15
100
AcDbCircle
 10
220.4158533869
 20
2140.6356741273
 30
0.0
 40
1.249999999999545
  0
CIRCLE
  5
1F5
330
1F
100
AcDbEntity
  8
0
  6
Continuous
 62
     7
370
    15
100
AcDbCircle
 10
213.6658533869
 20
2147.3856741273
 30
0.0
 40
1.250000000000455
  0
CIRCLE
  5
1F6
330
1F
100
AcDbEntity
  8
0
  6
Continuous
 62
     7
370
    15
100
AcDbCircle
 10
213.6658533869
 20
2133.8856741273
 30
0.0
 40
1.249999999999545
  0
CIRCLE
  5
1F7
330
1F
100
AcDbEntity
  8
0
  6
Continuous
 62
     7
370
    15
100
AcDbCircle
 10
206.9158533869
 20
2140.6356741273
 30
0.0
 40
1.249999999999545
  0
CIRCLE
  5
1F8
330
1F
100
AcDbEntity
  8
0
  6
Continuous
 62
     7
370
    15
100
AcDbCircle
 10
213.6658533869
 20
2140.6356741273
 30
0.0
 40
15.00000000000045
  0
CIRCLE
  5
1F9
330
1F
100
AcDbEntity
  8
0
  6
Continuous
 62
     7
370
    15
100
AcDbCircle
 10
-486.3341466131
 20
2140.6356741273
 30
0.0
 40
13.00000000000045
  0
CIRCLE
  5
1FA
330
1F
100
AcDbEntity
  8
0
  6
Continuous
 62
     7
370
    15
100
AcDbCircle
 10
-486.3341466131
 20
2133.8856741273
 30
0.0
 40
1.25
  0
CIRCLE
  5
1FB
330
1F
100
AcDbEntity
  8
0
  6
Continuous
 62
     7
370
    15
100
AcDbCircle
 10
-486.3341466131
 20
2147.3856741273
 30
0.0
 40
1.250000000000455
  0
CIRCLE
  5
1FC
330
1F
100
AcDbEntity
  8
0
  6
Continuous
 62
     7
370
    15
100
AcDbCircle
 10
-493.0841466131
 20
2140.6356741273
 30
0.0
 40
1.249999999999545
  0
CIRCLE
  5
1FD
330
1F
100
AcDbEntity
  8
0
  6
Continuous
 62
     7
370
    15
100
AcDbCircle
 10
-479.5841466131
 20
2140.6356741273
 30
0.0
 40
1.249999999999545
  0
CIRCLE
  5
1FE
330
1F
100
AcDbEntity
  8
0
  6
Continuous
 62
     7
370
    15
100
AcDbCircle
 10
-486.3341466131
 20
2140.6356741273
 30
0.0
 40
15.00000000000045
  0
LINE
  5
1FF
330
1F
100
AcDbEntity
  8
0
  6
Continuous
 62
     7
370
    15
100
AcDbLine
 10
313.7158817536
 20
2125.6356925609
 30
0.0
 11
228.6658353097
 21
2125.6356925609
 31
0.0
  0
LINE
  5
200
330
1F
100
AcDbEntity
  8
0
  6
Continuous
 62
     7
370
    15
100
AcDbLine
 10
198.6658639199
 20
2125.6356925609
 30
0.0
 11
-471.3341453188
 21
2125.6356925609
 31
0.0
  0
LINE
  5
201
330
1F
100
AcDbEntity
  8
0
  6
Continuous
 62
     7
370
    15
100
AcDbLine
 10
-501.3341465109
 20
2125.6356925609
 30
0.0
 11
-586.2841465586
 21
2125.6356925609
 31
0.0
  0
LINE
  5
202
330
1F
100
AcDbEntity
  8
0
  6
Continuous
 62
     7
370
    15
100
AcDbLine
 10
313.7158817536
 20
75.6357663217
 30
0.0
 11
313.7158817536
 21
2125.6356925609
 31
0.0
  0
LINE
  5
203
330
1F
100
AcDbEntity
  8
0
  6
Continuous
 62
     7
370
    15
100
AcDbLine
 10
-586.2841465586
 20
75.6357663217
 30
0.0
 11
313.7158817536
 21
75.6357663217
 31
0.0
  0
LINE
  5
204
330
1F
100
AcDbEntity
  8
0
  6
Continuous
 62
     7
370
    15
100
AcDbLine
 10
-586.2841465586
 20
2125.6356925609
 30
0.0
 11
-586.2841465586
 21
75.6357663217
 31
0.0
  0
CIRCLE
  5
205
330
1F
100
AcDbEntity
  8
0
  6
Continuous
 62
     7
370
    15
100
AcDbCircle
 10
-486.3341466131
 20
2200.6356741273
 30
0.0
 40
15.00000000000045
  0
CIRCLE
  5
206
330
1F
100
AcDbEntity
  8
0
  6
Continuous
 62
     7
370
    15
100
AcDbCircle
 10
-486.3341466131
 20
2200.6356741273
 30
0.0
 40
13.0
  0
CIRCLE
  5
207
330
1F
100
AcDbEntity
  8
0
  6
Continuous
 62
     7
370
    15
100
AcDbCircle
 10
-486.3341466131
 20
2193.8856741273
 30
0.0
 40
1.25
  0
CIRCLE
  5
208
330
1F
100
AcDbEntity
  8
0
  6
Continuous
 62
     7
370
    15
100
AcDbCircle
 10
-486.3341466131
 20
2207.3856741273
 30
0.0
 40
1.250000000000455
  0
CIRCLE
  5
209
330
1F
100
AcDbEntity
  8
0
  6
Continuous
 62
     7
370
    15
100
AcDbCircle
 10
-479.5841466131
 20
2200.6356741273
 30
0.0
 40
1.249999999999545
  0
CIRCLE
  5
20A
330
1F
100
AcDbEntity
  8
0
  6
Continuous
 62
     7
370
    15
100
AcDbCircle
 10
-493.0841466131
 20
2200.6356741273
 30
0.0
 40
1.249999999999545
  0
CIRCLE
  5
20B
330
1F
100
AcDbEntity
  8
0
  6
Continuous
 62
     7
370
    15
100
AcDbCircle
 10
213.6658533869
 20
2200.6356741273
 30
0.0
 40
15.0
  0
CIRCLE
  5
20C
330
1F
100
AcDbEntity
  8
0
  6
Continuous
 62
     7
370
    15
100
AcDbCircle
 10
213.6658533869
 20
2200.6356741273
 30
0.0
 40
13.0
  0
CIRCLE
  5
20D
330
1F
100
AcDbEntity
  8
0
  6
Continuous
 62
     7
370
    15
100
AcDbCircle
 10
213.6658533869
 20
2193.8856741273
 30
0.0
 40
1.250000000000455
  0
CIRCLE
  5
20E
330
1F
100
AcDbEntity
  8
0
  6
Continuous
 62
     7
370
    15
100
AcDbCircle
 10
206.9158533869
 20
2200.6356741273
 30
0.0
 40
1.25
  0
CIRCLE
  5
20F
330
1F
100
AcDbEntity
  8
0
  6
Continuous
 62
     7
370
    15
100
AcDbCircle
 10
220.4158533869
 20
2200.6356741273
 30
0.0
 40
1.25
  0
CIRCLE
  5
210
330
1F
100
AcDbEntity
  8
0
  6
Continuous
 62
     7
370
    15
100
AcDbCircle
 10
213.6658533869
 20
2207.3856741273
 30
0.0
 40
1.25
  0
ARC
  5
211
330
1F
100
AcDbEntity
  8
0
  6
Continuous
 62
     7
370
    15
100
AcDbCircle
 10
213.6658533869
 20
2200.6356741273
 30
0.0
 40
29.00000000000026
100
AcDbArc
 50
301.1473899215
 51
219.6984741355
  0
ARC
  5
212
330
1F
100
AcDbEntity
  8
0
  6
Continuous
 62
     7
370
    15
100
AcDbCircle
 10
213.6658533869
 20
2200.6356741273
 30
0.0
 40
29.00000000000021
100
AcDbArc
 50
219.6984741355
 51
238.8526100785
  0
ARC
  5
213
330
1F
100
AcDbEntity
  8
0
  6
Continuous
 62
     7
370
    15
100
AcDbCircle
 10
-486.3341466131
 20
2200.6356741273
 30
0.0
 40
29.00000000000034
100
AcDbArc
 50
301.1473899215
 51
219.6984741355
  0
ARC
  5
214
330
1F
100
AcDbEntity
  8
0
  6
Continuous
 62
     7
370
    15
100
AcDbCircle
 10
-486.3341466131
 20
2200.6356741273
 30
0.0
 40
29.0000000000002
100
AcDbArc
 50
219.6984741355
 51
238.8526100785
  0
CIRCLE
  5
215
330
1F
100
AcDbEntity
  8
0
  6
Continuous
 62
     7
370
    15
100
AcDbCircle
 10
-486.2841466131
 20
2015.6356919845
 30
0.0
 40
13.00000000000001
  0
CIRCLE
  5
216
330
1F
100
AcDbEntity
  8
0
  6
Continuous
 62
     7
370
    15
100
AcDbCircle
 10
-487.8355214166
 20
2022.2049945516
 30
0.0
 40
1.249999999999941
  0
CIRCLE
  5
217
330
1F
100
AcDbEntity
  8
0
  6
Continuous
 62
     7
370
    15
100
AcDbCircle
 10
-492.8534491803
 20
2014.0843171809
 30
0.0
 40
1.249999999999941
  0
CIRCLE
  5
218
330
1F
100
AcDbEntity
  8
0
  6
Continuous
 62
     7
370
    15
100
AcDbCircle
 10
-484.7327718096
 20
2009.0663894173
 30
0.0
 40
1.249999999999994
  0
CIRCLE
  5
219
330
1F
100
AcDbEntity
  8
0
  6
Continuous
 62
     7
370
    15
100
AcDbCircle
 10
-479.7148440459
 20
2017.187066788
 30
0.0
 40
1.250000000000104
  0
CIRCLE
  5
21A
330
1F
100
AcDbEntity
  8
0
  6
Continuous
 62
     7
370
    15
100
AcDbCircle
 10
-486.2841466131
 20
2015.6356919845
 30
0.0
 40
15.00000000000004
  0
CIRCLE
  5
21B
330
1F
100
AcDbEntity
  8
0
  6
Continuous
 62
     7
370
    15
100
AcDbCircle
 10
213.7158533869
 20
2015.6356919845
 30
0.0
 40
12.99999999999998
  0
CIRCLE
  5
21C
330
1F
100
AcDbEntity
  8
0
  6
Continuous
 62
     7
370
    15
100
AcDbCircle
 10
212.1644785834
 20
2022.2049945516
 30
0.0
 40
1.249999999999948
  0
CIRCLE
  5
21D
330
1F
100
AcDbEntity
  8
0
  6
Continuous
 62
     7
370
    15
100
AcDbCircle
 10
215.2672281904
 20
2009.0663894173
 30
0.0
 40
1.250000000000052
  0
CIRCLE
  5
21E
330
1F
100
AcDbEntity
  8
0
  6
Continuous
 62
     7
370
    15
100
AcDbCircle
 10
220.2851559541
 20
2017.187066788
 30
0.0
 40
1.249999999999889
  0
CIRCLE
  5
21F
330
1F
100
AcDbEntity
  8
0
  6
Continuous
 62
     7
370
    15
100
AcDbCircle
 10
207.1465508197
 20
2014.0843171809
 30
0.0
 40
1.250000000000132
  0
CIRCLE
  5
220
330
1F
100
AcDbEntity
  8
0
  6
Continuous
 62
     7
370
    15
100
AcDbCircle
 10
213.7158533869
 20
2015.6356919845
 30
0.0
 40
15.00000000000006
  0
CIRCLE
  5
221
330
1F
100
AcDbEntity
  8
0
  6
Continuous
 62
     7
370
    15
100
AcDbCircle
 10
-486.2841466131
 20
2070.6356919845
 30
0.0
 40
13.00000000000019
  0
CIRCLE
  5
222
330
1F
100
AcDbEntity
  8
0
  6
Continuous
 62
     7
370
    15
100
AcDbCircle
 10
-487.7795970558
 20
2077.2179505614
 30
0.0
 40
1.249999999999963
  0
CIRCLE
  5
223
330
1F
100
AcDbEntity
  8
0
  6
Continuous
 62
     7
370
    15
100
AcDbCircle
 10
-484.7886961705
 20
2064.0534334075
 30
0.0
 40
1.250000000000074
  0
CIRCLE
  5
224
330
1F
100
AcDbEntity
  8
0
  6
Continuous
 62
     7
370
    15
100
AcDbCircle
 10
-492.86640519
 20
2069.1402415418
 30
0.0
 40
1.249999999999863
  0
CIRCLE
  5
225
330
1F
100
AcDbEntity
  8
0
  6
Continuous
 62
     7
370
    15
100
AcDbCircle
 10
-479.7018880362
 20
2072.1311424271
 30
0.0
 40
1.250000000000029
  0
CIRCLE
  5
226
330
1F
100
AcDbEntity
  8
0
  6
Continuous
 62
     7
370
    15
100
AcDbCircle
 10
-486.2841466131
 20
2070.6356919845
 30
0.0
 40
15.00000000000006
  0
CIRCLE
  5
227
330
1F
100
AcDbEntity
  8
0
  6
Continuous
 62
     7
370
    15
100
AcDbCircle
 10
213.7158533869
 20
2070.6356919845
 30
0.0
 40
14.99999999999996
  0
CIRCLE
  5
228
330
1F
100
AcDbEntity
  8
0
  6
Continuous
 62
     7
370
    15
100
AcDbCircle
 10
213.7158533869
 20
2070.6356919845
 30
0.0
 40
12.99999999999998
  0
CIRCLE
  5
229
330
1F
100
AcDbEntity
  8
0
  6
Continuous
 62
     7
370
    15
100
AcDbCircle
 10
212.2204029442
 20
2077.2179505614
 30
0.0
 40
1.250000000000001
  0
CIRCLE
  5
22A
330
1F
100
AcDbEntity
  8
0
  6
Continuous
 62
     7
370
    15
100
AcDbCircle
 10
207.13359481
 20
2069.1402415418
 30
0.0
 40
1.249999999999901
  0
CIRCLE
  5
22B
330
1F
100
AcDbEntity
  8
0
  6
Continuous
 62
     7
370
    15
100
AcDbCircle
 10
215.2113038295
 20
2064.0534334075
 30
0.0
 40
1.250000000000102
  0
CIRCLE
  5
22C
330
1F
100
AcDbEntity
  8
0
  6
Continuous
 62
     7
370
    15
100
AcDbCircle
 10
220.2981119638
 20
2072.1311424271
 30
0.0
 40
1.249999999999963
  0
LINE
  5
22D
330
1F
100
AcDbEntity
  8
0
  6
Continuous
 62
     7
370
    15
100
AcDbLine
 10
228.6658353097
 20
2200.6356731894
 30
0.0
 11
228.6658353097
 21
2071.8594171944
 31
0.0
  0
LINE
  5
22E
330
1F
100
AcDbEntity
  8
0
  6
Continuous
 62
     7
370
    15
100
AcDbLine
 10
228.6658353097
 20
2069.4119685235
 30
0.0
 11
228.6658353097
 21
2016.8594174924
 31
0.0
  0
LINE
  5
22F
330
1F
100
AcDbEntity
  8
0
  6
Continuous
 62
     7
370
    15
100
AcDbLine
 10
228.6658353097
 20
2014.411961371
 30
0.0
 11
228.6658353097
 21
2011.6356813255
 31
0.0
  0
ARC
  5
230
330
1F
100
AcDbEntity
  8
0
  6
Continuous
 62
     7
370
    15
100
AcDbCircle
 10
213.6658533869
 20
2011.6356741273
 30
0.0
 40
15.00000000000003
100
AcDbArc
 50
180.0
 51
0.0
  0
LINE
  5
231
330
1F
100
AcDbEntity
  8
0
  6
Continuous
 62
     7
370
    15
100
AcDbLine
 10
198.6658639199
 20
2011.6356813255
 30
0.0
 11
198.6658639199
 21
2200.6356731894
 31
0.0
  0
LINE
  5
232
330
1F
100
AcDbEntity
  8
0
  6
Continuous
 62
     7
370
    15
100
AcDbLine
 10
-471.3341453188
 20
2200.6356731894
 30
0.0
 11
-471.3341453188
 21
2071.8594171944
 31
0.0
  0
LINE
  5
233
330
1F
100
AcDbEntity
  8
0
  6
Continuous
 62
     7
370
    15
100
AcDbLine
 10
-471.3341453188
 20
2069.4119685235
 30
0.0
 11
-471.3341453188
 21
2016.8594174924
 31
0.0
  0
LINE
  5
234
330
1F
100
AcDbEntity
  8
0
  6
Continuous
 62
     7
370
    15
100
AcDbLine
 10
-471.3341453188
 20
2014.411961371
 30
0.0
 11
-471.3341453188
 21
2011.6356813255
 31
0.0
  0
LINE
  5
235
330
1F
100
AcDbEntity
  8
0
  6
Continuous
 62
     7
370
    15
100
AcDbLine
 10
-501.3341465109
 20
2011.6356813255
 30
0.0
 11
-501.3341465109
 21
2200.6356731894
 31
0.0
  0
ARC
  5
236
330
1F
100
AcDbEntity
  8
0
  6
Continuous
 62
     7
370
    15
100
AcDbCircle
 10
-486.3341466131
 20
2011.6356741273
 30
0.0
 40
15.00000000000006
100
AcDbArc
 50
180.0
 51
0.0
  0
LINE
  5
237
330
1F
100
AcDbEntity
  8
0
  6
Continuous
 62
     7
370
    15
100
AcDbLine
 10
268.6890429741
 20
67.6356308999
 30
0.0
 11
268.6890429741
 21
71.6355794015
 31
0.0
  0
LINE
  5
238
330
1F
100
AcDbEntity
  8
0
  6
Continuous
 62
     7
370
    15
100
AcDbLine
 10
209.1890043503
 20
67.6356308999
 30
0.0
 11
268.6890429741
 21
67.6356308999
 31
0.0
  0
LINE
  5
239
330
1F
100
AcDbEntity
  8
0
  6
Continuous
 62
     7
370
    15
100
AcDbLine
 10
209.1890043503
 20
71.6355794015
 30
0.0
 11
209.1890043503
 21
67.6356308999
 31
0.0
  0
LINE
  5
23A
330
1F
100
AcDbEntity
  8
0
  6
Continuous
 62
     7
370
    15
100
AcDbLine
 10
209.1890043503
 20
71.6355794015
 30
0.0
 11
268.6890429741
 21
71.6355794015
 31
0.0
  0
LINE
  5
23B
330
1F
100
AcDbEntity
  8
0
  6
Continuous
 62
     7
370
    15
100
AcDbLine
 10
209.1890043503
 20
67.6356308999
 30
0.0
 11
206.6890067345
 21
67.6356308999
 31
0.0
  0
LINE
  5
23C
330
1F
100
AcDbEntity
  8
0
  6
Continuous
 62
     7
370
    15
100
AcDbLine
 10
206.6890067345
 20
67.6356308999
 30
0.0
 11
206.6890067345
 21
71.6355794015
 31
0.0
  0
LINE
  5
23D
330
1F
100
AcDbEntity
  8
0
  6
Continuous
 62
     7
370
    15
100
AcDbLine
 10
206.6890067345
 20
71.6355794015
 30
0.0
 11
209.1890043503
 21
71.6355794015
 31
0.0
  0
LINE
  5
23E
330
1F
100
AcDbEntity
  8
0
  6
Continuous
 62
     7
370
    15
100
AcDbLine
 10
271.18904059
 20
71.6355794015
 30
0.0
 11
271.18904059
 21
67.6356308999
 31
0.0
  0
LINE
  5
23F
330
1F
100
AcDbEntity
  8
0
  6
Continuous
 62
     7
370
    15
100
AcDbLine
 10
271.18904059
 20
67.6356308999
 30
0.0
 11
268.6890429741
 21
67.6356308999
 31
0.0
  0
LINE
  5
240
330
1F
100
AcDbEntity
  8
0
  6
Continuous
 62
     7
370
    15
100
AcDbLine
 10
268.6890429741
 20
71.6355794015
 30
0.0
 11
271.18904059
 21
71.6355794015
 31
0.0
  0
ARC
  5
241
330
1F
100
AcDbEntity
  8
0
  6
Continuous
 62
     7
370
    15
100
AcDbCircle
 10
218.6595084011
 20
72.7679802279
 30
0.0
 40
1.827150544183976
100
AcDbArc
 50
321.701149533
 51
10.772194645
  0
LINE
  5
242
330
1F
100
AcDbEntity
  8
0
  6
Continuous
 62
     7
370
    15
100
AcDbLine
 10
220.4544610268
 20
73.1094830575
 30
0.0
 11
246.9235724694
 21
73.1094830575
 31
0.0
  0
ARC
  5
243
330
1F
100
AcDbEntity
  8
0
  6
Continuous
 62
     7
370
    15
100
AcDbCircle
 10
248.7185250951
 20
72.7679802279
 30
0.0
 40
1.827150544183976
100
AcDbArc
 50
169.227805355
 51
218.298850467
  0
CIRCLE
  5
244
330
1F
100
AcDbEntity
  8
0
  6
Continuous
 62
     7
370
    15
100
AcDbCircle
 10
251.1890191323
 20
2162.2642033639
 30
0.0
 40
6.449999999999893
  0
CIRCLE
  5
245
330
1F
100
AcDbEntity
  8
0
  6
Continuous
 62
     7
370
    15
100
AcDbCircle
 10
251.1890191323
 20
2162.2642033639
 30
0.0
 40
7.449999999999885
  0
CIRCLE
  5
246
330
1F
100
AcDbEntity
  8
0
  6
Continuous
 62
     7
370
    15
100
AcDbCircle
 10
253.6835045223
 20
2158.8232670613
 30
0.0
 40
1.250000000000036
  0
CIRCLE
  5
247
330
1F
100
AcDbEntity
  8
0
  6
Continuous
 62
     7
370
    15
100
AcDbCircle
 10
248.6945337423
 20
2165.7051396666
 30
0.0
 40
1.250000000000103
  0
CIRCLE
  5
248
330
1F
100
AcDbEntity
  8
0
  6
Continuous
 62
     7
370
    15
100
AcDbCircle
 10
247.7480828296
 20
2159.7697179739
 30
0.0
 40
1.250000000000052
  0
CIRCLE
  5
249
330
1F
100
AcDbEntity
  8
0
  6
Continuous
 62
     7
370
    15
100
AcDbCircle
 10
254.6299554349
 20
2164.758688754
 30
0.0
 40
1.250000000000103
  0
CIRCLE
  5
24A
330
1F
100
AcDbEntity
  8
0
  6
Continuous
 62
     7
370
    15
100
AcDbCircle
 10
-515.3700445651
 20
2164.758688754
 30
0.0
 40
1.250000000000069
  0
CIRCLE
  5
24B
330
1F
100
AcDbEntity
  8
0
  6
Continuous
 62
     7
370
    15
100
AcDbCircle
 10
-518.8109808677
 20
2162.2642033639
 30
0.0
 40
6.44999999999986
  0
CIRCLE
  5
24C
330
1F
100
AcDbEntity
  8
0
  6
Continuous
 62
     7
370
    15
100
AcDbCircle
 10
-522.2519171704
 20
2159.7697179739
 30
0.0
 40
1.250000000000069
  0
CIRCLE
  5
24D
330
1F
100
AcDbEntity
  8
0
  6
Continuous
 62
     7
370
    15
100
AcDbCircle
 10
-516.3164954777
 20
2158.8232670613
 30
0.0
 40
1.250000000000002
  0
CIRCLE
  5
24E
330
1F
100
AcDbEntity
  8
0
  6
Continuous
 62
     7
370
    15
100
AcDbCircle
 10
-521.3054662577
 20
2165.7051396666
 30
0.0
 40
1.250000000000136
  0
CIRCLE
  5
24F
330
1F
100
AcDbEntity
  8
0
  6
Continuous
 62
     7
370
    15
100
AcDbCircle
 10
-518.8109808677
 20
2162.2642033639
 30
0.0
 40
7.449999999999867
  0
CIRCLE
  5
250
330
1F
100
AcDbEntity
  8
0
  6
Continuous
 62
     7
370
    15
100
AcDbCircle
 10
1021.1890191323
 20
2162.2642033639
 30
0.0
 40
6.449999999999926
  0
CIRCLE
  5
251
330
1F
100
AcDbEntity
  8
0
  6
Continuous
 62
     7
370
    15
100
AcDbCircle
 10
1021.1890191323
 20
2162.2642033639
 30
0.0
 40
7.450000000000068
  0
CIRCLE
  5
252
330
1F
100
AcDbEntity
  8
0
  6
Continuous
 62
     7
370
    15
100
AcDbCircle
 10
1024.6299554349
 20
2164.758688754
 30
0.0
 40
1.249999999999936
  0
CIRCLE
  5
253
330
1F
100
AcDbEntity
  8
0
  6
Continuous
 62
     7
370
    15
100
AcDbCircle
 10
1018.6945337423
 20
2165.7051396666
 30
0.0
 40
1.249999999999936
  0
CIRCLE
  5
254
330
1F
100
AcDbEntity
  8
0
  6
Continuous
 62
     7
370
    15
100
AcDbCircle
 10
1023.6835045223
 20
2158.8232670613
 30
0.0
 40
1.249999999999936
  0
CIRCLE
  5
255
330
1F
100
AcDbEntity
  8
0
  6
Continuous
 62
     7
370
    15
100
AcDbCircle
 10
1017.7480828296
 20
2159.7697179739
 30
0.0
 40
1.250000000000002
  0
ARC
  5
256
330
1F
100
AcDbEntity
  8
0
  6
Continuous
 62
     7
370
    15
100
AcDbCircle
 10
251.1890191323
 20
2162.2642033639
 30
0.0
 40
14.99999999999959
100
AcDbArc
 50
236.4426902381
 51
303.5573097619
  0
ARC
  5
257
330
1F
100
AcDbEntity
  8
0
  6
Continuous
 62
     7
370
    15
100
AcDbCircle
 10
251.1890191323
 20
2162.2642033639
 30
0.0
 40
14.99999999999959
100
AcDbArc
 50
56.4426902381
 51
123.5573097619
  0
ARC
  5
258
330
1F
100
AcDbEntity
  8
0
  6
Continuous
 62
     7
370
    15
100
AcDbCircle
 10
251.1890191323
 20
2162.2642033639
 30
0.0
 40
29.99999999999998
100
AcDbArc
 50
24.6243183522
 51
110.2555059165
  0
ARC
  5
259
330
1F
100
AcDbEntity
  8
0
  6
Continuous
 62
     7
370
    15
100
AcDbCircle
 10
251.1890191323
 20
2162.2642033639
 30
0.0
 40
29.99999999999998
100
AcDbArc
 50
221.342688158
 51
335.3756816478
  0
ARC
  5
25A
330
1F
100
AcDbEntity
  8
0
  6
Continuous
 62
     7
370
    15
100
AcDbCircle
 10
-518.8109808677
 20
2162.2642033639
 30
0.0
 40
14.99999999999962
100
AcDbArc
 50
236.4426902381
 51
303.5573097619
  0
ARC
  5
25B
330
1F
100
AcDbEntity
  8
0
  6
Continuous
 62
     7
370
    15
100
AcDbCircle
 10
-518.8109808677
 20
2162.2642033639
 30
0.0
 40
14.99999999999962
100
AcDbArc
 50
56.4426902381
 51
123.5573097619
  0
ARC
  5
25C
330
1F
100
AcDbEntity
  8
0
  6
Continuous
 62
     7
370
    15
100
AcDbCircle
 10
-518.8109808677
 20
2162.2642033639
 30
0.0
 40
29.99999999999993
100
AcDbArc
 50
80.7300808779
 51
155.3756816478
  0
ARC
  5
25D
330
1F
100
AcDbEntity
  8
0
  6
Continuous
 62
     7
370
    15
100
AcDbCircle
 10
-518.8109808677
 20
2162.2642033639
 30
0.0
 40
30.00000000000041
100
AcDbArc
 50
213.5796566236
 51
305.630882068
  0
LWPOLYLINE
  5
25E
330
1F
100
AcDbEntity
  8
0
  6
Continuous
 62
     7
370
    15
100
AcDbPolyline
 90
        3
 70
   128
 43
0.0
 10
-545.6018381828
 20
2148.7642030138
 10
-546.0388016963
 20
2149.6687351632
 10
-546.0827619844
 20
2149.7642031777
  0
ARC
  5
25F
330
1F
100
AcDbEntity
  8
0
  6
Continuous
 62
     7
370
    15
100
AcDbCircle
 10
1021.1890191323
 20
2162.2642033639
 30
0.0
 40
14.99999999999969
100
AcDbArc
 50
236.4426902381
 51
303.5573097619
  0
ARC
  5
260
330
1F
100
AcDbEntity
  8
0
  6
Continuous
 62
     7
370
    15
100
AcDbCircle
 10
1021.1890191323
 20
2162.2642033639
 30
0.0
 40
14.99999999999969
100
AcDbArc
 50
56.4426902381
 51
123.5573097619
  0
ARC
  5
261
330
1F
100
AcDbEntity
  8
0
  6
Continuous
 62
     7
370
    15
100
AcDbCircle
 10
1021.1890191323
 20
2162.2642033639
 30
0.0
 40
30.00000000000003
100
AcDbArc
 50
24.6243183522
 51
155.3756816478
  0
LINE
  5
262
330
1F
100
AcDbEntity
  8
0
  6
Continuous
 62
     7
370
    15
100
AcDbLine
 10
1048.1890506035
 20
2149.187506819
 30
0.0
 11
1047.9798383004
 21
2148.7642030138
 31
0.0
  0
ARC
  5
263
330
1F
100
AcDbEntity
  8
0
  6
Continuous
 62
     7
370
    15
100
AcDbCircle
 10
1021.1890191323
 20
2162.2642033639
 30
0.0
 40
30.00000000000003
100
AcDbArc
 50
204.6243183522
 51
326.4203433767
  0
LINE
  5
264
330
1F
100
AcDbEntity
  8
0
  6
Continuous
 62
     7
370
    15
100
AcDbLine
 10
-647.8109740728
 20
2174.7642035502
 30
0.0
 11
-647.8109740728
 21
2149.7642031777
 31
0.0
  0
LINE
  5
265
330
1F
100
AcDbEntity
  8
0
  6
Continuous
 62
     7
370
    15
100
AcDbLine
 10
1150.1890486962
 20
2149.7642031777
 30
0.0
 11
1150.1890486962
 21
2174.7642035502
 31
0.0
  0
SPLINE
  5
266
330
1F
100
AcDbEntity
  8
0
  6
Continuous
 62
     7
370
    15
100
AcDbSpline
210
0.0
220
0.0
230
1.0
 70
    11
 71
     3
 72
    28
 73
    24
 74
     0
 42
0.000000001
 43
0.00000001
 40
0.0
 40
0.0
 40
0.0
 40
0.0
 40
0.0475550284769205
 40
0.0949664402020547
 40
0.1460697055975588
 40
0.2034570429579919
 40
0.2467859374210581
 40
0.2901858692180441
 40
0.3330336579759088
 40
0.3834832694383457
 40
0.4410922691068714
 40
0.4950485986566343
 40
0.5415904552634542
 40
0.5869405342103252
 40
0.6370247871902202
 40
0.6937087306425688
 40
0.7381343604853257
 40
0.7826955934300744
 40
0.8249696934642723
 40
0.873731060031583
 40
0.930692461818582
 40
0.9860188302665687
 40
1.0
 40
1.0
 40
1.0
 40
1.0
 10
258.7390012032128
 20
2162.264203363934
 30
0.0
 10
258.6690446433992
 20
2161.491405023884
 30
0.0
 10
258.5293427934157
 20
2159.948142203964
 30
0.0
 10
257.456389676135
 20
2157.8624400659
 30
0.0
 10
255.8020130390907
 20
2156.111167515439
 30
0.0
 10
253.6739502313719
 20
2154.997576770538
 30
0.0
 10
251.3484870117425
 20
2154.615114488719
 30
0.0
 10
249.2337371809946
 20
2154.872982632999
 30
0.0
 10
247.2385837344139
 20
2155.708825374001
 30
0.0
 10
245.4225240340286
 20
2157.180070150252
 30
0.0
 10
244.0520681382523
 20
2159.349764695094
 30
0.0
 10
243.5117964773698
 20
2161.899465696993
 30
0.0
 10
243.8006089919154
 20
2164.283442160613
 30
0.0
 10
244.7161079288034
 20
2166.361078098965
 30
0.0
 10
246.2566987410428
 20
2168.155825609012
 30
0.0
 10
248.291049368384
 20
2169.374537790952
 30
0.0
 10
250.5998159865435
 20
2169.897323614026
 30
0.0
 10
252.7634223595033
 20
2169.748528912984
 30
0.0
 10
254.7935332002156
 20
2169.011455746566
 30
0.0
 10
256.6527106940101
 20
2167.663769903758
 30
0.0
 10
258.1283958282298
 20
2165.612128193829
 30
0.0
 10
258.7014070759715
 20
2163.61139665439
 30
0.0
 10
258.7326905053147
 20
2162.490348522494
 30
0.0
 10
258.7390012032128
 20
2162.264203363934
 30
0.0
  0
SPLINE
  5
267
330
1F
100
AcDbEntity
  8
0
  6
Continuous
 62
     7
370
    15
100
AcDbSpline
210
0.0
220
0.0
230
1.0
 70
    11
 71
     3
 72
    28
 73
    24
 74
     0
 42
0.000000001
 43
0.00000001
 40
0.0
 40
0.0
 40
0.0
 40
0.0
 40
0.0475551017581377
 40
0.0949664478301108
 40
0.1460694109748525
 40
0.2034572620135033
 40
0.2467854039304267
 40
0.2901854595561361
 40
0.3330337828653862
 40
0.3834830941484244
 40
0.4410924202715051
 40
0.4950486988046595
 40
0.5415905724712584
 40
0.5869408337005583
 40
0.637024723295287
 40
0.6937086281078244
 40
0.7381340333147036
 40
0.7826955103207595
 40
0.8249696366383935
 40
0.8737310939239696
 40
0.9306923259971297
 40
0.9860188322291032
 40
1.0
 40
1.0
 40
1.0
 40
1.0
 10
-511.2609806546234
 20
2162.264203363934
 30
0.0
 10
-511.3309488251001
 20
2161.491405283754
 30
0.0
 10
-511.4706736572567
 20
2159.948145236958
 30
0.0
 10
-512.5436122338368
 20
2157.862446115241
 30
0.0
 10
-514.1979720539093
 20
2156.111151742863
 30
0.0
 10
-516.3260460523138
 20
2154.997590004787
 30
0.0
 10
-518.651501955135
 20
2154.615110505931
 30
0.0
 10
-520.7662483534908
 20
2154.87298911576
 30
0.0
 10
-522.7614235687272
 20
2155.708810626186
 30
0.0
 10
-524.5774622022288
 20
2157.180086673867
 30
0.0
 10
-525.9479673394538
 20
2159.349752541819
 30
0.0
 10
-526.4882176128646
 20
2161.899467889558
 30
0.0
 10
-526.1994005976177
 20
2164.283447924507
 30
0.0
 10
-525.2838635456959
 20
2166.361063723673
 30
0.0
 10
-523.7433143119003
 20
2168.155834852546
 30
0.0
 10
-521.7089597128017
 20
2169.374534452405
 30
0.0
 10
-519.4001969776439
 20
2169.897324989158
 30
0.0
 10
-517.2365874047862
 20
2169.748529984819
 30
0.0
 10
-515.2064728824614
 20
2169.01145430412
 30
0.0
 10
-513.3472841964468
 20
2167.663776351659
 30
0.0
 10
-511.8716286213291
 20
2165.612118320273
 30
0.0
 10
-511.2985769382153
 20
2163.61139960198
 30
0.0
 10
-511.2672917034658
 20
2162.490348622091
 30
0.0
 10
-511.2609806546234
 20
2162.264203363934
 30
0.0
  0
SPLINE
  5
268
330
1F
100
AcDbEntity
  8
0
  6
Continuous
 62
     7
370
    15
100
AcDbSpline
210
0.0
220
0.0
230
1.0
 70
    11
 71
     3
 72
    28
 73
    24
 74
     0
 42
0.000000001
 43
0.00000001
 40
0.0
 40
0.0
 40
0.0
 40
0.0
 40
0.0475549915920277
 40
0.0949663665436619
 40
0.1460687887507326
 40
0.2034571310172703
 40
0.2467859918733411
 40
0.2901846749500624
 40
0.333033530766028
 40
0.3834821964231643
 40
0.4410917761296267
 40
0.4950480638294844
 40
0.5415898843372534
 40
0.5869404062421033
 40
0.6370238606651188
 40
0.6937077601519553
 40
0.7381321705706605
 40
0.7826958170677971
 40
0.824969884313125
 40
0.8737312130598762
 40
0.9306925706661595
 40
0.9860188962016039
 40
1.0
 40
1.0
 40
1.0
 40
1.0
 10
1028.738982129727
 20
2162.264203363934
 30
0.0
 10
1028.669026501104
 20
2161.491404231971
 30
0.0
 10
1028.52932651069
 20
2159.948139830616
 30
0.0
 10
1027.456365020686
 20
2157.862461306394
 30
0.0
 10
1025.802050695364
 20
2156.111130442649
 30
0.0
 10
1023.673940853995
 20
2154.997592167257
 30
0.0
 10
1021.348486804269
 20
2154.615108116931
 30
0.0
 10
1019.233749472717
 20
2154.873005013249
 30
0.0
 10
1017.23857498458
 20
2155.708790882178
 30
0.0
 10
1015.422576835665
 20
2157.180109523116
 30
0.0
 10
1014.052031418603
 20
2159.349744070901
 30
0.0
 10
1013.511787996556
 20
2161.899465213906
 30
0.0
 10
1013.80056897389
 20
2164.283458834413
 30
0.0
 10
1014.716171222175
 20
2166.361044667913
 30
0.0
 10
1016.256666093012
 20
2168.155847248504
 30
0.0
 10
1018.2910205934
 20
2169.374523397793
 30
0.0
 10
1020.599792305824
 20
2169.897331534903
 30
0.0
 10
1022.763426881796
 20
2169.748539945626
 30
0.0
 10
1024.793572221634
 20
2169.01145638319
 30
0.0
 10
1026.652757970541
 20
2167.663769968529
 30
0.0
 10
1028.128407059511
 20
2165.612126945594
 30
0.0
 10
1028.701519431822
 20
2163.611400762484
 30
0.0
 10
1028.732693510535
 20
2162.490348620162
 30
0.0
 10
1028.738982129727
 20
2162.264203363934
 30
0.0
  0
LINE
  5
269
330
1F
100
AcDbEntity
  8
0
  6
Continuous
 62
     7
370
    15
100
AcDbLine
 10
-648.8109760993
 20
2150.7642033416
 30
0.0
 11
-648.8109760993
 21
2173.7642033863
 31
0.0
  0
LINE
  5
26A
330
1F
100
AcDbEntity
  8
0
  6
Continuous
 62
     7
370
    15
100
AcDbLine
 10
1151.1889762169
 20
2173.7642033863
 30
0.0
 11
1151.1889762169
 21
2150.7642033416
 31
0.0
  0
LINE
  5
26B
330
1F
100
AcDbEntity
  8
0
  6
Continuous
 62
     8
370
    15
100
AcDbLine
 10
1050.4890746361
 20
2154.2142030689
 30
0.0
 11
1050.4890746361
 21
2142.3142027947
 31
0.0
  0
LINE
  5
26C
330
1F
100
AcDbEntity
  8
0
  6
Continuous
 62
     8
370
    15
100
AcDbLine
 10
-564.1109802836
 20
2142.3142027947
 30
0.0
 11
-564.1109802836
 21
2154.2142030689
 31
0.0
  0
LINE
  5
26D
330
1F
100
AcDbEntity
  8
0
  6
Continuous
 62
     8
370
    15
100
AcDbLine
 10
1041.7044228798
 20
2150.0153277907
 30
0.0
 11
1041.7044228798
 21
2150.0778623763
 31
0.0
  0
LINE
  5
26E
330
1F
100
AcDbEntity
  8
0
  6
Continuous
 62
     8
370
    15
100
AcDbLine
 10
1041.7044228798
 20
2144.4505450222
 30
0.0
 11
1041.7044228798
 21
2150.0153277907
 31
0.0
  0
LINE
  5
26F
330
1F
100
AcDbEntity
  8
0
  6
Continuous
 62
     8
370
    15
100
AcDbLine
 10
1044.5120400673
 20
2149.4596457946
 30
0.0
 11
1044.5120400673
 21
2145.0687606725
 31
0.0
  0
LINE
  5
270
330
1F
100
AcDbEntity
  8
0
  6
Continuous
 62
     8
370
    15
100
AcDbLine
 10
1035.1141757256
 20
2149.5835936534
 30
0.0
 11
1035.1141757256
 21
2144.9448128137
 31
0.0
  0
LINE
  5
271
330
1F
100
AcDbEntity
  8
0
  6
Continuous
 62
     8
370
    15
100
AcDbLine
 10
1047.1890038735
 20
2148.7642030138
 30
0.0
 11
1047.1890038735
 21
2145.7642034533
 31
0.0
  0
LINE
  5
272
330
1F
100
AcDbEntity
  8
0
  6
Continuous
 62
     8
370
    15
100
AcDbLine
 10
-552.6439146214
 20
2146.0991945955
 30
0.0
 11
-552.6439146214
 21
2144.978489438
 31
0.0
  0
LINE
  5
273
330
1F
100
AcDbEntity
  8
0
  6
Continuous
 62
     8
370
    15
100
AcDbLine
 10
-552.6439146214
 20
2149.5499179604
 30
0.0
 11
-552.6439146214
 21
2146.0991945955
 31
0.0
  0
LINE
  5
274
330
1F
100
AcDbEntity
  8
0
  6
Continuous
 62
     8
370
    15
100
AcDbLine
 10
-555.2193083876
 20
2144.2642041388
 30
0.0
 11
-555.2193083876
 21
2150.2642032596
 31
0.0
  0
LINE
  5
275
330
1F
100
AcDbEntity
  8
0
  6
Continuous
 62
     8
370
    15
100
AcDbLine
 10
-539.3264320755
 20
2145.8301057014
 30
0.0
 11
-539.3264320755
 21
2144.4505450222
 31
0.0
  0
LINE
  5
276
330
1F
100
AcDbEntity
  8
0
  6
Continuous
 62
     8
370
    15
100
AcDbLine
 10
-539.3264320755
 20
2150.0778623763
 30
0.0
 11
-539.3264320755
 21
2145.8301057014
 31
0.0
  0
LINE
  5
277
330
1F
100
AcDbEntity
  8
0
  6
Continuous
 62
     8
370
    15
100
AcDbLine
 10
-542.1340008342
 20
2145.0687606725
 30
0.0
 11
-542.1340008342
 21
2149.4596457946
 31
0.0
  0
LINE
  5
278
330
1F
100
AcDbEntity
  8
0
  6
Continuous
 62
     8
370
    15
100
AcDbLine
 10
-532.7361905092
 20
2144.9448128137
 30
0.0
 11
-532.7361905092
 21
2149.5835936534
 31
0.0
  0
LINE
  5
279
330
1F
100
AcDbEntity
  8
0
  6
Continuous
 62
     8
370
    15
100
AcDbLine
 10
-549.8109803611
 20
2145.7642034533
 30
0.0
 11
-549.8109803611
 21
2148.7642030138
 31
0.0
  0
LINE
  5
27A
330
1F
100
AcDbEntity
  8
0
  6
Continuous
 62
     8
370
    15
100
AcDbLine
 10
-544.8109814042
 20
2145.7642034533
 30
0.0
 11
-544.8109814042
 21
2148.7642030138
 31
0.0
  0
LINE
  5
27B
330
1F
100
AcDbEntity
  8
0
  6
Continuous
 62
     8
370
    15
100
AcDbLine
 10
220.4650706536
 20
75.6357663217
 30
0.0
 11
220.4544610268
 21
73.1094830575
 31
0.0
  0
LINE
  5
27C
330
1F
100
AcDbEntity
  8
0
  6
Continuous
 62
     8
370
    15
100
AcDbLine
 10
246.9129628426
 20
75.6357663217
 30
0.0
 11
246.9235724694
 21
73.1094830575
 31
0.0
  0
LINE
  5
27D
330
1F
100
AcDbEntity
  8
0
  6
Continuous
 62
     8
370
    15
100
AcDbLine
 10
219.7147673852
 20
73.1094830575
 30
0.0
 11
220.4544610268
 21
73.1094830575
 31
0.0
  0
LINE
  5
27E
330
1F
100
AcDbEntity
  8
0
  6
Continuous
 62
     8
370
    15
100
AcDbLine
 10
246.9235724694
 20
73.1094830575
 30
0.0
 11
247.663266111
 21
73.1094830575
 31
0.0
  0
LINE
  5
27F
330
1F
100
AcDbEntity
  8
0
  6
Continuous
 62
     7
370
    15
100
AcDbLine
 10
1080.4890460259
 20
-134.2259470696
 30
0.0
 11
1075.3890342003
 21
-134.2259470696
 31
0.0
  0
LINE
  5
280
330
1F
100
AcDbEntity
  8
0
  6
Continuous
 62
     7
370
    15
100
AcDbLine
 10
1075.3890342003
 20
-152.425945955
 30
0.0
 11
1080.4890460259
 21
-152.425945955
 31
0.0
  0
LINE
  5
281
330
1F
100
AcDbEntity
  8
0
  6
Continuous
 62
     7
370
    15
100
AcDbLine
 10
1080.4890460259
 20
-152.425945955
 30
0.0
 11
1080.6889600045
 21
-152.2259425694
 31
0.0
  0
LINE
  5
282
330
1F
100
AcDbEntity
  8
0
  6
Continuous
 62
     7
370
    15
100
AcDbLine
 10
1080.6889600045
 20
-134.4259467298
 30
0.0
 11
1080.4890460259
 21
-134.2259470696
 31
0.0
  0
LINE
  5
283
330
1F
100
AcDbEntity
  8
0
  6
Continuous
 62
     7
370
    15
100
AcDbLine
 10
1075.3890342003
 20
-134.2259470696
 30
0.0
 11
1075.1890010125
 21
-134.4259467298
 31
0.0
  0
LINE
  5
284
330
1F
100
AcDbEntity
  8
0
  6
Continuous
 62
     7
370
    15
100
AcDbLine
 10
1075.1890010125
 20
-152.2259425694
 30
0.0
 11
1075.3890342003
 21
-152.425945955
 31
0.0
  0
LINE
  5
285
330
1F
100
AcDbEntity
  8
0
  6
Continuous
 62
     7
370
    15
100
AcDbLine
 10
-578.1109825784
 20
-134.2259470696
 30
0.0
 11
-578.3109822386
 21
-134.4259467298
 31
0.0
  0
LINE
  5
286
330
1F
100
AcDbEntity
  8
0
  6
Continuous
 62
     7
370
    15
100
AcDbLine
 10
-578.3109822386
 20
-152.2259425694
 30
0.0
 11
-578.1109825784
 21
-152.425945955
 31
0.0
  0
LINE
  5
287
330
1F
100
AcDbEntity
  8
0
  6
Continuous
 62
     7
370
    15
100
AcDbLine
 10
-578.1109825784
 20
-152.425945955
 30
0.0
 11
-573.0109819287
 21
-152.425945955
 31
0.0
  0
LINE
  5
288
330
1F
100
AcDbEntity
  8
0
  6
Continuous
 62
     7
370
    15
100
AcDbLine
 10
-573.0109819287
 20
-134.2259470696
 30
0.0
 11
-578.1109825784
 21
-134.2259470696
 31
0.0
  0
LINE
  5
289
330
1F
100
AcDbEntity
  8
0
  6
Continuous
 62
     7
370
    15
100
AcDbLine
 10
-573.0109819287
 20
-152.425945955
 30
0.0
 11
-572.8109822684
 21
-152.2259425694
 31
0.0
  0
LINE
  5
28A
330
1F
100
AcDbEntity
  8
0
  6
Continuous
 62
     7
370
    15
100
AcDbLine
 10
-572.8109822684
 20
-134.4259467298
 30
0.0
 11
-573.0109819287
 21
-134.2259470696
 31
0.0
  0
ARC
  5
28B
330
1F
100
AcDbEntity
  8
0
  6
Continuous
 62
     7
370
    15
100
AcDbCircle
 10
1050.4890191323
 20
-148.9759456331
 30
0.0
 40
0.3000000000000114
100
AcDbArc
 50
180.0
 51
270.0
  0
ARC
  5
28C
330
1F
100
AcDbEntity
  8
0
  6
Continuous
 62
     7
370
    15
100
AcDbCircle
 10
1050.4890191323
 20
-137.6759456331
 30
0.0
 40
0.3000000000000114
100
AcDbArc
 50
90.0
 51
180.0
  0
LINE
  5
28D
330
1F
100
AcDbEntity
  8
0
  6
Continuous
 62
     7
370
    15
100
AcDbLine
 10
1075.1890010125
 20
-137.3759445125
 30
0.0
 11
1050.4890746361
 21
-137.3759445125
 31
0.0
  0
LINE
  5
28E
330
1F
100
AcDbEntity
  8
0
  6
Continuous
 62
     7
370
    15
100
AcDbLine
 10
1050.4890746361
 20
-149.2759447867
 30
0.0
 11
1075.1890010125
 21
-149.2759447867
 31
0.0
  0
ARC
  5
28F
330
1F
100
AcDbEntity
  8
0
  6
Continuous
 62
     7
370
    15
100
AcDbCircle
 10
-564.1109808677
 20
-137.6759456331
 30
0.0
 40
0.3000000000000682
100
AcDbArc
 50
0.0
 51
90.0
  0
ARC
  5
290
330
1F
100
AcDbEntity
  8
0
  6
Continuous
 62
     7
370
    15
100
AcDbCircle
 10
-564.1109808677
 20
-148.9759456331
 30
0.0
 40
0.3000000000000682
100
AcDbArc
 50
270.0
 51
0.0
  0
LINE
  5
291
330
1F
100
AcDbEntity
  8
0
  6
Continuous
 62
     7
370
    15
100
AcDbLine
 10
-572.8109822684
 20
-149.2759447867
 30
0.0
 11
-564.1109802836
 21
-149.2759447867
 31
0.0
  0
LINE
  5
292
330
1F
100
AcDbEntity
  8
0
  6
Continuous
 62
     7
370
    15
100
AcDbLine
 10
-564.1109802836
 20
-137.3759445125
 30
0.0
 11
-572.8109822684
 21
-137.3759445125
 31
0.0
  0
LINE
  5
293
330
1F
100
AcDbEntity
  8
0
  6
Continuous
 62
     7
370
    15
100
AcDbLine
 10
1048.1890506035
 20
-148.3259473318
 30
0.0
 11
1050.1890248543
 21
-148.3259473318
 31
0.0
  0
LINE
  5
294
330
1F
100
AcDbEntity
  8
0
  6
Continuous
 62
     7
370
    15
100
AcDbLine
 10
1050.1890248543
 20
-138.3259456927
 30
0.0
 11
1048.1890506035
 21
-138.3259456927
 31
0.0
  0
LINE
  5
295
330
1F
100
AcDbEntity
  8
0
  6
Continuous
 62
     7
370
    15
100
AcDbLine
 10
-561.810982328
 20
-138.3259456927
 30
0.0
 11
-563.8109826558
 21
-138.3259456927
 31
0.0
  0
LINE
  5
296
330
1F
100
AcDbEntity
  8
0
  6
Continuous
 62
     7
370
    15
100
AcDbLine
 10
-563.8109826558
 20
-148.3259473318
 30
0.0
 11
-561.810982328
 21
-148.3259473318
 31
0.0
  0
LINE
  5
297
330
1F
100
AcDbEntity
  8
0
  6
Continuous
 62
     7
370
    15
100
AcDbLine
 10
1120.8890742547
 20
-151.800946551
 30
0.0
 11
1121.1890048272
 21
-151.5009489233
 31
0.0
  0
LINE
  5
298
330
1F
100
AcDbEntity
  8
0
  6
Continuous
 62
     7
370
    15
100
AcDbLine
 10
1121.1890048272
 20
-135.1509441013
 30
0.0
 11
1120.8890742547
 21
-134.8509464735
 31
0.0
  0
LINE
  5
299
330
1F
100
AcDbEntity
  8
0
  6
Continuous
 62
     7
370
    15
100
AcDbLine
 10
1120.6890410668
 20
-151.800946551
 30
0.0
 11
1120.8890742547
 21
-151.800946551
 31
0.0
  0
LINE
  5
29A
330
1F
100
AcDbEntity
  8
0
  6
Continuous
 62
     7
370
    15
100
AcDbLine
 10
1120.8890742547
 20
-134.8509464735
 30
0.0
 11
1120.6890410668
 21
-134.8509464735
 31
0.0
  0
LINE
  5
29B
330
1F
100
AcDbEntity
  8
0
  6
Continuous
 62
     7
370
    15
100
AcDbLine
 10
-618.5109772795
 20
-134.8509464735
 30
0.0
 11
-618.8109823578
 21
-135.1509441013
 31
0.0
  0
LINE
  5
29C
330
1F
100
AcDbEntity
  8
0
  6
Continuous
 62
     7
370
    15
100
AcDbLine
 10
-618.8109823578
 20
-151.5009489233
 30
0.0
 11
-618.5109772795
 21
-151.800946551
 31
0.0
  0
LINE
  5
29D
330
1F
100
AcDbEntity
  8
0
  6
Continuous
 62
     7
370
    15
100
AcDbLine
 10
-618.3109813445
 20
-134.8509464735
 30
0.0
 11
-618.5109772795
 21
-134.8509464735
 31
0.0
  0
LINE
  5
29E
330
1F
100
AcDbEntity
  8
0
  6
Continuous
 62
     7
370
    15
100
AcDbLine
 10
-618.5109772795
 20
-151.800946551
 30
0.0
 11
-618.3109813445
 21
-151.800946551
 31
0.0
  0
LINE
  5
29F
330
1F
100
AcDbEntity
  8
0
  6
Continuous
 62
     7
370
    15
100
AcDbLine
 10
-578.3109822386
 20
-154.025943237
 30
0.0
 11
-578.5109818989
 21
-153.825947302
 31
0.0
  0
LINE
  5
2A0
330
1F
100
AcDbEntity
  8
0
  6
Continuous
 62
     7
370
    15
100
AcDbLine
 10
-618.110977959
 20
-153.825947302
 30
0.0
 11
-618.3109813445
 21
-154.025943237
 31
0.0
  0
LINE
  5
2A1
330
1F
100
AcDbEntity
  8
0
  6
Continuous
 62
     7
370
    15
100
AcDbLine
 10
-618.3109813445
 20
-154.025943237
 30
0.0
 11
-618.3109813445
 21
-156.8259459311
 31
0.0
  0
LINE
  5
2A2
330
1F
100
AcDbEntity
  8
0
  6
Continuous
 62
     7
370
    15
100
AcDbLine
 10
-578.3109822386
 20
-156.8259459311
 30
0.0
 11
-578.3109822386
 21
-154.025943237
 31
0.0
  0
LINE
  5
2A3
330
1F
100
AcDbEntity
  8
0
  6
Continuous
 62
     7
370
    15
100
AcDbLine
 10
-618.3109813445
 20
-156.8259459311
 30
0.0
 11
-616.3109772914
 21
-158.8259425336
 31
0.0
  0
LINE
  5
2A4
330
1F
100
AcDbEntity
  8
0
  6
Continuous
 62
     7
370
    15
100
AcDbLine
 10
-580.3109825664
 20
-158.8259425336
 30
0.0
 11
-578.3109822386
 21
-156.8259459311
 31
0.0
  0
LINE
  5
2A5
330
1F
100
AcDbEntity
  8
0
  6
Continuous
 62
     7
370
    15
100
AcDbLine
 10
1120.6890410668
 20
-154.025943237
 30
0.0
 11
1120.4890078789
 21
-153.825947302
 31
0.0
  0
LINE
  5
2A6
330
1F
100
AcDbEntity
  8
0
  6
Continuous
 62
     7
370
    15
100
AcDbLine
 10
1080.8889931923
 20
-153.825947302
 30
0.0
 11
1080.6889600045
 21
-154.025943237
 31
0.0
  0
LINE
  5
2A7
330
1F
100
AcDbEntity
  8
0
  6
Continuous
 62
     7
370
    15
100
AcDbLine
 10
1080.6889600045
 20
-154.025943237
 30
0.0
 11
1080.6889600045
 21
-156.8259459311
 31
0.0
  0
LINE
  5
2A8
330
1F
100
AcDbEntity
  8
0
  6
Continuous
 62
     7
370
    15
100
AcDbLine
 10
1120.6890410668
 20
-156.8259459311
 30
0.0
 11
1120.6890410668
 21
-154.025943237
 31
0.0
  0
LINE
  5
2A9
330
1F
100
AcDbEntity
  8
0
  6
Continuous
 62
     7
370
    15
100
AcDbLine
 10
1080.6889600045
 20
-156.8259459311
 30
0.0
 11
1082.6890534646
 21
-158.8259425336
 31
0.0
  0
LINE
  5
2AA
330
1F
100
AcDbEntity
  8
0
  6
Continuous
 62
     7
370
    15
100
AcDbLine
 10
1118.689066816
 20
-158.8259425336
 30
0.0
 11
1120.6890410668
 21
-156.8259459311
 31
0.0
  0
LINE
  5
2AB
330
1F
100
AcDbEntity
  8
0
  6
Continuous
 62
     7
370
    15
100
AcDbLine
 10
1120.6890410668
 20
-106.6259455258
 30
0.0
 11
1120.388991285
 21
-106.3259460354
 31
0.0
  0
LINE
  5
2AC
330
1F
100
AcDbEntity
  8
0
  6
Continuous
 62
     7
370
    15
100
AcDbLine
 10
1080.9890097863
 20
-106.3259460354
 30
0.0
 11
1080.6889600045
 21
-106.6259455258
 31
0.0
  0
LINE
  5
2AD
330
1F
100
AcDbEntity
  8
0
  6
Continuous
 62
     7
370
    15
100
AcDbLine
 10
1080.6889600045
 20
-133.8259440238
 30
0.0
 11
1080.6889600045
 21
-153.5259422237
 31
0.0
  0
LINE
  5
2AE
330
1F
100
AcDbEntity
  8
0
  6
Continuous
 62
     7
370
    15
100
AcDbLine
 10
1080.6889600045
 20
-106.6259455258
 30
0.0
 11
1080.6889600045
 21
-108.8259455139
 31
0.0
  0
LINE
  5
2AF
330
1F
100
AcDbEntity
  8
0
  6
Continuous
 62
     7
370
    15
100
AcDbLine
 10
1120.6890410668
 20
-108.8259455139
 30
0.0
 11
1120.6890410668
 21
-106.6259455258
 31
0.0
  0
LINE
  5
2B0
330
1F
100
AcDbEntity
  8
0
  6
Continuous
 62
     7
370
    15
100
AcDbLine
 10
1120.6890410668
 20
-153.5259422237
 30
0.0
 11
1120.6890410668
 21
-133.8259440238
 31
0.0
  0
LINE
  5
2B1
330
1F
100
AcDbEntity
  8
0
  6
Continuous
 62
     7
370
    15
100
AcDbLine
 10
1080.6889600045
 20
-153.5259422237
 30
0.0
 11
1080.9890097863
 21
-153.825947302
 31
0.0
  0
LINE
  5
2B2
330
1F
100
AcDbEntity
  8
0
  6
Continuous
 62
     7
370
    15
100
AcDbLine
 10
1120.388991285
 20
-153.825947302
 30
0.0
 11
1120.6890410668
 21
-153.5259422237
 31
0.0
  0
LINE
  5
2B3
330
1F
100
AcDbEntity
  8
0
  6
Continuous
 62
     7
370
    15
100
AcDbLine
 10
-578.3109822386
 20
-106.6259455258
 30
0.0
 11
-578.6109798664
 21
-106.3259460354
 31
0.0
  0
LINE
  5
2B4
330
1F
100
AcDbEntity
  8
0
  6
Continuous
 62
     7
370
    15
100
AcDbLine
 10
-618.0109837168
 20
-106.3259460354
 30
0.0
 11
-618.3109813445
 21
-106.6259455258
 31
0.0
  0
LINE
  5
2B5
330
1F
100
AcDbEntity
  8
0
  6
Continuous
 62
     7
370
    15
100
AcDbLine
 10
-618.3109813445
 20
-133.8259440238
 30
0.0
 11
-618.3109813445
 21
-153.5259422237
 31
0.0
  0
LINE
  5
2B6
330
1F
100
AcDbEntity
  8
0
  6
Continuous
 62
     7
370
    15
100
AcDbLine
 10
-618.3109813445
 20
-106.6259455258
 30
0.0
 11
-618.3109813445
 21
-108.8259455139
 31
0.0
  0
LINE
  5
2B7
330
1F
100
AcDbEntity
  8
0
  6
Continuous
 62
     7
370
    15
100
AcDbLine
 10
-578.3109822386
 20
-108.8259455139
 30
0.0
 11
-578.3109822386
 21
-106.6259455258
 31
0.0
  0
LINE
  5
2B8
330
1F
100
AcDbEntity
  8
0
  6
Continuous
 62
     7
370
    15
100
AcDbLine
 10
-578.3109822386
 20
-153.5259422237
 30
0.0
 11
-578.3109822386
 21
-133.8259440238
 31
0.0
  0
LINE
  5
2B9
330
1F
100
AcDbEntity
  8
0
  6
Continuous
 62
     7
370
    15
100
AcDbLine
 10
-618.3109813445
 20
-153.5259422237
 30
0.0
 11
-618.0109837168
 21
-153.825947302
 31
0.0
  0
LINE
  5
2BA
330
1F
100
AcDbEntity
  8
0
  6
Continuous
 62
     7
370
    15
100
AcDbLine
 10
-578.6109798664
 20
-153.825947302
 30
0.0
 11
-578.3109822386
 21
-153.5259422237
 31
0.0
  0
LINE
  5
2BB
330
1F
100
AcDbEntity
  8
0
  6
Continuous
 62
     7
370
    15
100
AcDbLine
 10
-501.3341465109
 20
-109.8259456778
 30
0.0
 11
-501.3341465109
 21
-110.8259458417
 31
0.0
  0
LINE
  5
2BC
330
1F
100
AcDbEntity
  8
0
  6
Continuous
 62
     7
370
    15
100
AcDbLine
 10
-471.3341453188
 20
-110.8259458417
 30
0.0
 11
-471.3341453188
 21
-109.8259456778
 31
0.0
  0
LINE
  5
2BD
330
1F
100
AcDbEntity
  8
0
  6
Continuous
 62
     7
370
    15
100
AcDbLine
 10
-471.3341453188
 20
-109.8259456778
 30
0.0
 11
-473.3341456467
 21
-107.82594535
 31
0.0
  0
LINE
  5
2BE
330
1F
100
AcDbEntity
  8
0
  6
Continuous
 62
     7
370
    15
100
AcDbLine
 10
-499.3341461831
 20
-107.82594535
 30
0.0
 11
-501.3341465109
 21
-109.8259456778
 31
0.0
  0
LINE
  5
2BF
330
1F
100
AcDbEntity
  8
0
  6
Continuous
 62
     7
370
    15
100
AcDbLine
 10
-496.0841470474
 20
-110.8259458417
 30
0.0
 11
-496.0841470474
 21
-111.1959453994
 31
0.0
  0
LINE
  5
2C0
330
1F
100
AcDbEntity
  8
0
  6
Continuous
 62
     7
370
    15
100
AcDbLine
 10
-476.5841447824
 20
-111.1959453994
 30
0.0
 11
-476.5841447824
 21
-110.8259458417
 31
0.0
  0
LINE
  5
2C1
330
1F
100
AcDbEntity
  8
0
  6
Continuous
 62
     7
370
    15
100
AcDbLine
 10
-495.9141471499
 20
-111.6959464127
 30
0.0
 11
-495.7841456943
 21
-111.8259460056
 31
0.0
  0
LINE
  5
2C2
330
1F
100
AcDbEntity
  8
0
  6
Continuous
 62
     7
370
    15
100
AcDbLine
 10
-476.8841461354
 20
-111.8259460056
 30
0.0
 11
-476.7541484052
 21
-111.6959464127
 31
0.0
  0
LINE
  5
2C3
330
1F
100
AcDbEntity
  8
0
  6
Continuous
 62
     7
370
    15
100
AcDbLine
 10
228.6658353097
 20
-109.8259456778
 30
0.0
 11
226.6658610589
 21
-107.82594535
 31
0.0
  0
LINE
  5
2C4
330
1F
100
AcDbEntity
  8
0
  6
Continuous
 62
     7
370
    15
100
AcDbLine
 10
200.6658381707
 20
-107.82594535
 30
0.0
 11
198.6658639199
 21
-109.8259456778
 31
0.0
  0
LINE
  5
2C5
330
1F
100
AcDbEntity
  8
0
  6
Continuous
 62
     7
370
    15
100
AcDbLine
 10
198.6658639199
 20
-109.8259456778
 30
0.0
 11
198.6658639199
 21
-110.8259458417
 31
0.0
  0
LINE
  5
2C6
330
1F
100
AcDbEntity
  8
0
  6
Continuous
 62
     7
370
    15
100
AcDbLine
 10
228.6658353097
 20
-110.8259458417
 30
0.0
 11
228.6658353097
 21
-109.8259456778
 31
0.0
  0
LINE
  5
2C7
330
1F
100
AcDbEntity
  8
0
  6
Continuous
 62
     7
370
    15
100
AcDbLine
 10
204.0858334786
 20
-111.6959464127
 30
0.0
 11
204.2158312089
 21
-111.8259460056
 31
0.0
  0
LINE
  5
2C8
330
1F
100
AcDbEntity
  8
0
  6
Continuous
 62
     7
370
    15
100
AcDbLine
 10
223.1158680207
 20
-111.8259460056
 30
0.0
 11
223.2458657509
 21
-111.6959464127
 31
0.0
  0
LINE
  5
2C9
330
1F
100
AcDbEntity
  8
0
  6
Continuous
 62
     7
370
    15
100
AcDbLine
 10
203.9158410317
 20
-110.8259458417
 30
0.0
 11
203.9158410317
 21
-111.1959453994
 31
0.0
  0
LINE
  5
2CA
330
1F
100
AcDbEntity
  8
0
  6
Continuous
 62
     7
370
    15
100
AcDbLine
 10
223.4158581978
 20
-111.1959453994
 30
0.0
 11
223.4158581978
 21
-110.8259458417
 31
0.0
  0
LINE
  5
2CB
330
1F
100
AcDbEntity
  8
0
  6
Continuous
 62
     7
370
    15
100
AcDbLine
 10
228.6658353097
 20
-137.5259470517
 30
0.0
 11
228.6658353097
 21
-131.1259467477
 31
0.0
  0
LINE
  5
2CC
330
1F
100
AcDbEntity
  8
0
  6
Continuous
 62
     7
370
    15
100
AcDbLine
 10
198.6658639199
 20
-131.1259467477
 30
0.0
 11
198.6658639199
 21
-137.5259470517
 31
0.0
  0
LINE
  5
2CD
330
1F
100
AcDbEntity
  8
0
  6
Continuous
 62
     7
370
    15
100
AcDbLine
 10
228.6658353097
 20
-131.1259467477
 30
0.0
 11
228.3658451325
 21
-130.8259453947
 31
0.0
  0
LINE
  5
2CE
330
1F
100
AcDbEntity
  8
0
  6
Continuous
 62
     7
370
    15
100
AcDbLine
 10
198.965854097
 20
-130.8259453947
 30
0.0
 11
198.6658639199
 21
-131.1259467477
 31
0.0
  0
LINE
  5
2CF
330
1F
100
AcDbEntity
  8
0
  6
Continuous
 62
     7
370
    15
100
AcDbLine
 10
198.6658639199
 20
-137.5259470517
 30
0.0
 11
198.965854097
 21
-137.8259446794
 31
0.0
  0
LINE
  5
2D0
330
1F
100
AcDbEntity
  8
0
  6
Continuous
 62
     7
370
    15
100
AcDbLine
 10
228.3658451325
 20
-137.8259446794
 30
0.0
 11
228.6658353097
 21
-137.5259470517
 31
0.0
  0
LINE
  5
2D1
330
1F
100
AcDbEntity
  8
0
  6
Continuous
 62
     7
370
    15
100
AcDbLine
 10
223.4158581978
 20
-130.8259453947
 30
0.0
 11
223.4158581978
 21
-130.4559458369
 31
0.0
  0
LINE
  5
2D2
330
1F
100
AcDbEntity
  8
0
  6
Continuous
 62
     7
370
    15
100
AcDbLine
 10
203.9158410317
 20
-130.4559458369
 30
0.0
 11
203.9158410317
 21
-130.8259453947
 31
0.0
  0
LINE
  5
2D3
330
1F
100
AcDbEntity
  8
0
  6
Continuous
 62
     7
370
    15
100
AcDbLine
 10
223.2458657509
 20
-129.9559448237
 30
0.0
 11
223.1158680207
 21
-129.8259470934
 31
0.0
  0
LINE
  5
2D4
330
1F
100
AcDbEntity
  8
0
  6
Continuous
 62
     7
370
    15
100
AcDbLine
 10
204.2158312089
 20
-129.8259470934
 30
0.0
 11
204.0858334786
 21
-129.9559448237
 31
0.0
  0
LINE
  5
2D5
330
1F
100
AcDbEntity
  8
0
  6
Continuous
 62
     7
370
    15
100
AcDbLine
 10
-471.3341453188
 20
-131.1259467477
 30
0.0
 11
-471.6341466719
 21
-130.8259453947
 31
0.0
  0
LINE
  5
2D6
330
1F
100
AcDbEntity
  8
0
  6
Continuous
 62
     7
370
    15
100
AcDbLine
 10
-501.0341470205
 20
-130.8259453947
 30
0.0
 11
-501.3341465109
 21
-131.1259467477
 31
0.0
  0
LINE
  5
2D7
330
1F
100
AcDbEntity
  8
0
  6
Continuous
 62
     7
370
    15
100
AcDbLine
 10
-471.3341453188
 20
-137.5259470517
 30
0.0
 11
-471.3341453188
 21
-131.1259467477
 31
0.0
  0
LINE
  5
2D8
330
1F
100
AcDbEntity
  8
0
  6
Continuous
 62
     7
370
    15
100
AcDbLine
 10
-501.3341465109
 20
-131.1259467477
 30
0.0
 11
-501.3341465109
 21
-137.5259470517
 31
0.0
  0
LINE
  5
2D9
330
1F
100
AcDbEntity
  8
0
  6
Continuous
 62
     7
370
    15
100
AcDbLine
 10
-501.3341465109
 20
-137.5259470517
 30
0.0
 11
-501.0341470205
 21
-137.8259446794
 31
0.0
  0
LINE
  5
2DA
330
1F
100
AcDbEntity
  8
0
  6
Continuous
 62
     7
370
    15
100
AcDbLine
 10
-471.6341466719
 20
-137.8259446794
 30
0.0
 11
-471.3341453188
 21
-137.5259470517
 31
0.0
  0
LINE
  5
2DB
330
1F
100
AcDbEntity
  8
0
  6
Continuous
 62
     7
370
    15
100
AcDbLine
 10
-476.5841447824
 20
-130.8259453947
 30
0.0
 11
-476.5841447824
 21
-130.4559458369
 31
0.0
  0
LINE
  5
2DC
330
1F
100
AcDbEntity
  8
0
  6
Continuous
 62
     7
370
    15
100
AcDbLine
 10
-496.0841470474
 20
-130.4559458369
 30
0.0
 11
-496.0841470474
 21
-130.8259453947
 31
0.0
  0
LINE
  5
2DD
330
1F
100
AcDbEntity
  8
0
  6
Continuous
 62
     7
370
    15
100
AcDbLine
 10
-476.7541484052
 20
-129.9559448237
 30
0.0
 11
-476.8841461354
 21
-129.8259470934
 31
0.0
  0
LINE
  5
2DE
330
1F
100
AcDbEntity
  8
0
  6
Continuous
 62
     7
370
    15
100
AcDbLine
 10
-495.7841456943
 20
-129.8259470934
 30
0.0
 11
-495.9141471499
 21
-129.9559448237
 31
0.0
  0
LINE
  5
2DF
330
1F
100
AcDbEntity
  8
0
  6
Continuous
 62
     7
370
    15
100
AcDbLine
 10
184.7158736474
 20
-111.1959453994
 30
0.0
 11
184.7158736474
 21
-111.6959464127
 31
0.0
  0
LINE
  5
2E0
330
1F
100
AcDbEntity
  8
0
  6
Continuous
 62
     7
370
    15
100
AcDbLine
 10
242.6158255822
 20
-111.6959464127
 30
0.0
 11
242.6158255822
 21
-111.1959453994
 31
0.0
  0
LINE
  5
2E1
330
1F
100
AcDbEntity
  8
0
  6
Continuous
 62
     7
370
    15
100
AcDbLine
 10
242.6158255822
 20
-130.4559458369
 30
0.0
 11
242.6158255822
 21
-129.9559448237
 31
0.0
  0
LINE
  5
2E2
330
1F
100
AcDbEntity
  8
0
  6
Continuous
 62
     7
370
    15
100
AcDbLine
 10
184.7158736474
 20
-129.9559448237
 30
0.0
 11
184.7158736474
 21
-130.4559458369
 31
0.0
  0
LINE
  5
2E3
330
1F
100
AcDbEntity
  8
0
  6
Continuous
 62
     7
370
    15
100
AcDbLine
 10
-515.2841465623
 20
-111.1959453994
 30
0.0
 11
-515.2841465623
 21
-111.6959464127
 31
0.0
  0
LINE
  5
2E4
330
1F
100
AcDbEntity
  8
0
  6
Continuous
 62
     7
370
    15
100
AcDbLine
 10
-457.3841475957
 20
-111.6959464127
 30
0.0
 11
-457.3841475957
 21
-111.1959453994
 31
0.0
  0
LINE
  5
2E5
330
1F
100
AcDbEntity
  8
0
  6
Continuous
 62
     7
370
    15
100
AcDbLine
 10
-457.3841475957
 20
-130.4559458369
 30
0.0
 11
-457.3841475957
 21
-129.9559448237
 31
0.0
  0
LINE
  5
2E6
330
1F
100
AcDbEntity
  8
0
  6
Continuous
 62
     7
370
    15
100
AcDbLine
 10
-515.2841465623
 20
-129.9559448237
 30
0.0
 11
-515.2841465623
 21
-130.4559458369
 31
0.0
  0
LINE
  5
2E7
330
1F
100
AcDbEntity
  8
0
  6
Continuous
 62
     7
370
    15
100
AcDbLine
 10
-471.3341453188
 20
-149.8259466464
 30
0.0
 11
-471.3341453188
 21
-147.8259463185
 31
0.0
  0
LINE
  5
2E8
330
1F
100
AcDbEntity
  8
0
  6
Continuous
 62
     7
370
    15
100
AcDbLine
 10
-501.3341465109
 20
-147.8259463185
 30
0.0
 11
-501.3341465109
 21
-149.8259466464
 31
0.0
  0
LINE
  5
2E9
330
1F
100
AcDbEntity
  8
0
  6
Continuous
 62
     7
370
    15
100
AcDbLine
 10
-501.3341465109
 20
-149.8259466464
 30
0.0
 11
-499.3341461831
 21
-151.8259432489
 31
0.0
  0
LINE
  5
2EA
330
1F
100
AcDbEntity
  8
0
  6
Continuous
 62
     7
370
    15
100
AcDbLine
 10
-473.3341456467
 20
-151.8259432489
 30
0.0
 11
-471.3341453188
 21
-149.8259466464
 31
0.0
  0
LINE
  5
2EB
330
1F
100
AcDbEntity
  8
0
  6
Continuous
 62
     7
370
    15
100
AcDbLine
 10
228.6658353097
 20
-149.8259466464
 30
0.0
 11
228.6658353097
 21
-147.8259463185
 31
0.0
  0
LINE
  5
2EC
330
1F
100
AcDbEntity
  8
0
  6
Continuous
 62
     7
370
    15
100
AcDbLine
 10
198.6658639199
 20
-147.8259463185
 30
0.0
 11
198.6658639199
 21
-149.8259466464
 31
0.0
  0
LINE
  5
2ED
330
1F
100
AcDbEntity
  8
0
  6
Continuous
 62
     7
370
    15
100
AcDbLine
 10
198.6658639199
 20
-149.8259466464
 30
0.0
 11
200.6658381707
 21
-151.8259432489
 31
0.0
  0
LINE
  5
2EE
330
1F
100
AcDbEntity
  8
0
  6
Continuous
 62
     7
370
    15
100
AcDbLine
 10
226.6658610589
 20
-151.8259432489
 30
0.0
 11
228.6658353097
 21
-149.8259466464
 31
0.0
  0
LINE
  5
2EF
330
1F
100
AcDbEntity
  8
0
  6
Continuous
 62
     7
370
    15
100
AcDbLine
 10
-471.3341453188
 20
-138.0259443397
 30
0.0
 11
-471.5341449791
 21
-137.8259446794
 31
0.0
  0
LINE
  5
2F0
330
1F
100
AcDbEntity
  8
0
  6
Continuous
 62
     7
370
    15
100
AcDbLine
 10
-501.1341468507
 20
-137.8259446794
 30
0.0
 11
-501.3341465109
 21
-138.0259443397
 31
0.0
  0
LINE
  5
2F1
330
1F
100
AcDbEntity
  8
0
  6
Continuous
 62
     7
370
    15
100
AcDbLine
 10
-501.3341465109
 20
-138.0259443397
 30
0.0
 11
-501.3341465109
 21
-141.6259456748
 31
0.0
  0
LINE
  5
2F2
330
1F
100
AcDbEntity
  8
0
  6
Continuous
 62
     7
370
    15
100
AcDbLine
 10
-471.3341453188
 20
-141.6259456748
 30
0.0
 11
-471.3341453188
 21
-138.0259443397
 31
0.0
  0
LINE
  5
2F3
330
1F
100
AcDbEntity
  8
0
  6
Continuous
 62
     7
370
    15
100
AcDbLine
 10
-501.3341465109
 20
-141.6259456748
 30
0.0
 11
-501.1341468507
 21
-141.8259453351
 31
0.0
  0
LINE
  5
2F4
330
1F
100
AcDbEntity
  8
0
  6
Continuous
 62
     7
370
    15
100
AcDbLine
 10
-471.5341449791
 20
-141.8259453351
 30
0.0
 11
-471.3341453188
 21
-141.6259456748
 31
0.0
  0
LINE
  5
2F5
330
1F
100
AcDbEntity
  8
0
  6
Continuous
 62
     7
370
    15
100
AcDbLine
 10
228.6658353097
 20
-138.0259443397
 30
0.0
 11
228.4658617264
 21
-137.8259446794
 31
0.0
  0
LINE
  5
2F6
330
1F
100
AcDbEntity
  8
0
  6
Continuous
 62
     7
370
    15
100
AcDbLine
 10
198.8658375031
 20
-137.8259446794
 30
0.0
 11
198.6658639199
 21
-138.0259443397
 31
0.0
  0
LINE
  5
2F7
330
1F
100
AcDbEntity
  8
0
  6
Continuous
 62
     7
370
    15
100
AcDbLine
 10
198.6658639199
 20
-138.0259443397
 30
0.0
 11
198.6658639199
 21
-141.6259456748
 31
0.0
  0
LINE
  5
2F8
330
1F
100
AcDbEntity
  8
0
  6
Continuous
 62
     7
370
    15
100
AcDbLine
 10
228.6658353097
 20
-141.6259456748
 30
0.0
 11
228.6658353097
 21
-138.0259443397
 31
0.0
  0
LINE
  5
2F9
330
1F
100
AcDbEntity
  8
0
  6
Continuous
 62
     7
370
    15
100
AcDbLine
 10
198.6658639199
 20
-141.6259456748
 30
0.0
 11
198.8658375031
 21
-141.8259453351
 31
0.0
  0
LINE
  5
2FA
330
1F
100
AcDbEntity
  8
0
  6
Continuous
 62
     7
370
    15
100
AcDbLine
 10
228.4658617264
 20
-141.8259453351
 30
0.0
 11
228.6658353097
 21
-141.6259456748
 31
0.0
  0
LINE
  5
2FB
330
1F
100
AcDbEntity
  8
0
  6
Continuous
 62
     7
370
    15
100
AcDbLine
 10
242.6658338791
 20
-112.8463737989
 30
0.0
 11
242.6658338791
 21
-111.8259460056
 31
0.0
  0
LINE
  5
2FC
330
1F
100
AcDbEntity
  8
0
  6
Continuous
 62
     7
370
    15
100
AcDbLine
 10
184.6658653504
 20
-111.8259460056
 30
0.0
 11
184.6658653504
 21
-112.8463737989
 31
0.0
  0
ARC
  5
2FD
330
1F
100
AcDbEntity
  8
0
  6
Continuous
 62
     7
370
    15
100
AcDbCircle
 10
252.2658533869
 20
-120.8519970563
 30
0.0
 40
12.49999999999995
100
AcDbArc
 50
140.1746287392
 51
219.8253712608
  0
ARC
  5
2FE
330
1F
100
AcDbEntity
  8
0
  6
Continuous
 62
     7
370
    15
100
AcDbCircle
 10
175.0658533869
 20
-120.8519970563
 30
0.0
 40
12.49999999999996
100
AcDbArc
 50
320.1746287392
 51
39.8253712608
  0
LINE
  5
2FF
330
1F
100
AcDbEntity
  8
0
  6
Continuous
 62
     7
370
    15
100
AcDbLine
 10
242.6658338791
 20
-129.8259470934
 30
0.0
 11
242.6658338791
 21
-128.8576212103
 31
0.0
  0
LINE
  5
300
330
1F
100
AcDbEntity
  8
0
  6
Continuous
 62
     7
370
    15
100
AcDbLine
 10
184.6658653504
 20
-128.8576212103
 30
0.0
 11
184.6658653504
 21
-129.8259470934
 31
0.0
  0
LINE
  5
301
330
1F
100
AcDbEntity
  8
0
  6
Continuous
 62
     7
370
    15
100
AcDbLine
 10
-457.3341467493
 20
-112.8463737989
 30
0.0
 11
-457.3341467493
 21
-111.8259460056
 31
0.0
  0
LINE
  5
302
330
1F
100
AcDbEntity
  8
0
  6
Continuous
 62
     7
370
    15
100
AcDbLine
 10
-515.3341467102
 20
-111.8259460056
 30
0.0
 11
-515.3341467102
 21
-112.8463737989
 31
0.0
  0
ARC
  5
303
330
1F
100
AcDbEntity
  8
0
  6
Continuous
 62
     7
370
    15
100
AcDbCircle
 10
-447.7341466131
 20
-120.8519970563
 30
0.0
 40
12.49999999999994
100
AcDbArc
 50
140.1746287392
 51
219.8253712608
  0
ARC
  5
304
330
1F
100
AcDbEntity
  8
0
  6
Continuous
 62
     7
370
    15
100
AcDbCircle
 10
-524.9341466131
 20
-120.8519970563
 30
0.0
 40
12.49999999999994
100
AcDbArc
 50
320.1746287392
 51
39.8253712608
  0
LINE
  5
305
330
1F
100
AcDbEntity
  8
0
  6
Continuous
 62
     7
370
    15
100
AcDbLine
 10
-457.3341467493
 20
-129.8259470934
 30
0.0
 11
-457.3341467493
 21
-128.8576212103
 31
0.0
  0
LINE
  5
306
330
1F
100
AcDbEntity
  8
0
  6
Continuous
 62
     7
370
    15
100
AcDbLine
 10
-515.3341467102
 20
-128.8576212103
 30
0.0
 11
-515.3341467102
 21
-129.8259470934
 31
0.0
  0
LINE
  5
307
330
1F
100
AcDbEntity
  8
0
  6
Continuous
 62
     7
370
    15
100
AcDbLine
 10
-471.2841481977
 20
-149.8259466464
 30
0.0
 11
-471.2841481977
 21
-147.8259463185
 31
0.0
  0
LINE
  5
308
330
1F
100
AcDbEntity
  8
0
  6
Continuous
 62
     7
370
    15
100
AcDbLine
 10
-473.2841448003
 20
-151.8259432489
 30
0.0
 11
-471.2841481977
 21
-149.8259466464
 31
0.0
  0
LINE
  5
309
330
1F
100
AcDbEntity
  8
0
  6
Continuous
 62
     7
370
    15
100
AcDbLine
 10
228.7158436066
 20
-149.8259466464
 30
0.0
 11
228.7158436066
 21
-147.8259463185
 31
0.0
  0
LINE
  5
30A
330
1F
100
AcDbEntity
  8
0
  6
Continuous
 62
     7
370
    15
100
AcDbLine
 10
226.7158693558
 20
-151.8259432489
 30
0.0
 11
228.7158436066
 21
-149.8259466464
 31
0.0
  0
LINE
  5
30B
330
1F
100
AcDbEntity
  8
0
  6
Continuous
 62
     7
370
    15
100
AcDbLine
 10
198.7158722169
 20
-99.8259459013
 30
0.0
 11
198.7158722169
 21
-101.8259452978
 31
0.0
  0
LINE
  5
30C
330
1F
100
AcDbEntity
  8
0
  6
Continuous
 62
     7
370
    15
100
AcDbLine
 10
228.7158436066
 20
-101.8259452978
 30
0.0
 11
228.7158436066
 21
-99.8259459013
 31
0.0
  0
LINE
  5
30D
330
1F
100
AcDbEntity
  8
0
  6
Continuous
 62
     7
370
    15
100
AcDbLine
 10
228.7158436066
 20
-99.8259459013
 30
0.0
 11
226.7158693558
 21
-97.8259455735
 31
0.0
  0
LINE
  5
30E
330
1F
100
AcDbEntity
  8
0
  6
Continuous
 62
     7
370
    15
100
AcDbLine
 10
200.7158464676
 20
-97.8259455735
 30
0.0
 11
198.7158722169
 21
-99.8259459013
 31
0.0
  0
LINE
  5
30F
330
1F
100
AcDbEntity
  8
0
  6
Continuous
 62
     7
370
    15
100
AcDbLine
 10
-471.2841481977
 20
-99.8259459013
 30
0.0
 11
-473.2841448003
 21
-97.8259455735
 31
0.0
  0
LINE
  5
310
330
1F
100
AcDbEntity
  8
0
  6
Continuous
 62
     7
370
    15
100
AcDbLine
 10
-499.2841471994
 20
-97.8259455735
 30
0.0
 11
-501.2841475272
 21
-99.8259459013
 31
0.0
  0
LINE
  5
311
330
1F
100
AcDbEntity
  8
0
  6
Continuous
 62
     7
370
    15
100
AcDbLine
 10
-501.2841475272
 20
-99.8259459013
 30
0.0
 11
-501.2841475272
 21
-101.8259452978
 31
0.0
  0
LINE
  5
312
330
1F
100
AcDbEntity
  8
0
  6
Continuous
 62
     7
370
    15
100
AcDbLine
 10
-471.2841481977
 20
-101.8259452978
 30
0.0
 11
-471.2841481977
 21
-99.8259459013
 31
0.0
  0
LINE
  5
313
330
1F
100
AcDbEntity
  8
0
  6
Continuous
 62
     7
370
    15
100
AcDbLine
 10
243.7390155083
 20
-133.8259440238
 30
0.0
 11
244.7390026337
 21
-134.8259460503
 31
0.0
  0
LINE
  5
314
330
1F
100
AcDbEntity
  8
0
  6
Continuous
 62
     7
370
    15
100
AcDbLine
 10
257.6389974839
 20
-134.8259460503
 30
0.0
 11
258.6390442139
 21
-133.8259440238
 31
0.0
  0
LINE
  5
315
330
1F
100
AcDbEntity
  8
0
  6
Continuous
 62
     7
370
    15
100
AcDbLine
 10
-526.260980785
 20
-133.8259440238
 30
0.0
 11
-525.2609810868
 21
-134.8259460503
 31
0.0
  0
LINE
  5
316
330
1F
100
AcDbEntity
  8
0
  6
Continuous
 62
     7
370
    15
100
AcDbLine
 10
-512.3609806487
 20
-134.8259460503
 30
0.0
 11
-511.3609809504
 21
-133.8259440238
 31
0.0
  0
LINE
  5
317
330
1F
100
AcDbEntity
  8
0
  6
Continuous
 62
     7
370
    15
100
AcDbLine
 10
1013.7389964348
 20
-133.8259440238
 30
0.0
 11
1014.7390431649
 21
-134.8259460503
 31
0.0
  0
LINE
  5
318
330
1F
100
AcDbEntity
  8
0
  6
Continuous
 62
     7
370
    15
100
AcDbLine
 10
1027.639038015
 20
-134.8259460503
 30
0.0
 11
1028.6389655358
 21
-133.8259440238
 31
0.0
  0
LINE
  5
319
330
1F
100
AcDbEntity
  8
0
  6
Continuous
 62
     7
370
    15
100
AcDbLine
 10
1013.6890477425
 20
-90.8259458231
 30
0.0
 11
1013.6890477425
 21
-108.8259455139
 31
0.0
  0
LINE
  5
31A
330
1F
100
AcDbEntity
  8
0
  6
Continuous
 62
     7
370
    15
100
AcDbLine
 10
1028.6890334374
 20
-108.8259455139
 30
0.0
 11
1028.6890334374
 21
-90.8259458231
 31
0.0
  0
LINE
  5
31B
330
1F
100
AcDbEntity
  8
0
  6
Continuous
 62
     7
370
    15
100
AcDbLine
 10
-526.3109807001
 20
-90.8259458231
 30
0.0
 11
-526.3109807001
 21
-108.8259455139
 31
0.0
  0
LINE
  5
31C
330
1F
100
AcDbEntity
  8
0
  6
Continuous
 62
     7
370
    15
100
AcDbLine
 10
-511.3109810353
 20
-108.8259455139
 30
0.0
 11
-511.3109810353
 21
-90.8259458231
 31
0.0
  0
LINE
  5
31D
330
1F
100
AcDbEntity
  8
0
  6
Continuous
 62
     7
370
    15
100
AcDbLine
 10
243.6890072114
 20
-90.8259458231
 30
0.0
 11
243.6890072114
 21
-108.8259455139
 31
0.0
  0
LINE
  5
31E
330
1F
100
AcDbEntity
  8
0
  6
Continuous
 62
     7
370
    15
100
AcDbLine
 10
258.6889929062
 20
-108.8259455139
 30
0.0
 11
258.6889929062
 21
-90.8259458231
 31
0.0
  0
LINE
  5
31F
330
1F
100
AcDbEntity
  8
0
  6
Continuous
 62
     7
370
    15
100
AcDbLine
 10
221.189028669
 20
-86.8259456331
 30
0.0
 11
221.189028669
 21
-88.8259457281
 31
0.0
  0
LINE
  5
320
330
1F
100
AcDbEntity
  8
0
  6
Continuous
 62
     7
370
    15
100
AcDbLine
 10
281.1890310532
 20
-88.8259457281
 30
0.0
 11
281.1890310532
 21
-86.8259456331
 31
0.0
  0
LINE
  5
321
330
1F
100
AcDbEntity
  8
0
  6
Continuous
 62
     7
370
    15
100
AcDbLine
 10
221.189028669
 20
-88.8259457281
 30
0.0
 11
236.1890143639
 21
-90.8259458231
 31
0.0
  0
LINE
  5
322
330
1F
100
AcDbEntity
  8
0
  6
Continuous
 62
     7
370
    15
100
AcDbLine
 10
266.1890453583
 20
-90.8259458231
 30
0.0
 11
281.1890310532
 21
-88.8259457281
 31
0.0
  0
LINE
  5
323
330
1F
100
AcDbEntity
  8
0
  6
Continuous
 62
     7
370
    15
100
AcDbLine
 10
-548.8109801972
 20
-86.8259456331
 30
0.0
 11
-548.8109801972
 21
-88.8259457281
 31
0.0
  0
LINE
  5
324
330
1F
100
AcDbEntity
  8
0
  6
Continuous
 62
     7
370
    15
100
AcDbLine
 10
-488.8109815383
 20
-88.8259457281
 30
0.0
 11
-488.8109815383
 21
-86.8259456331
 31
0.0
  0
LINE
  5
325
330
1F
100
AcDbEntity
  8
0
  6
Continuous
 62
     7
370
    15
100
AcDbLine
 10
-548.8109801972
 20
-88.8259457281
 30
0.0
 11
-533.8109805324
 21
-90.8259458231
 31
0.0
  0
LINE
  5
326
330
1F
100
AcDbEntity
  8
0
  6
Continuous
 62
     7
370
    15
100
AcDbLine
 10
-503.810981203
 20
-90.8259458231
 30
0.0
 11
-488.8109815383
 21
-88.8259457281
 31
0.0
  0
LINE
  5
327
330
1F
100
AcDbEntity
  8
0
  6
Continuous
 62
     7
370
    15
100
AcDbLine
 10
991.1890095955
 20
-86.8259456331
 30
0.0
 11
991.1890095955
 21
-88.8259457281
 31
0.0
  0
LINE
  5
328
330
1F
100
AcDbEntity
  8
0
  6
Continuous
 62
     7
370
    15
100
AcDbLine
 10
1051.1890715844
 20
-88.8259457281
 30
0.0
 11
1051.1890715844
 21
-86.8259456331
 31
0.0
  0
LINE
  5
329
330
1F
100
AcDbEntity
  8
0
  6
Continuous
 62
     7
370
    15
100
AcDbLine
 10
991.1890095955
 20
-88.8259457281
 30
0.0
 11
1006.1889952904
 21
-90.8259458231
 31
0.0
  0
LINE
  5
32A
330
1F
100
AcDbEntity
  8
0
  6
Continuous
 62
     7
370
    15
100
AcDbLine
 10
1036.1889666802
 20
-90.8259458231
 30
0.0
 11
1051.1890715844
 21
-88.8259457281
 31
0.0
  0
LINE
  5
32B
330
1F
100
AcDbEntity
  8
0
  6
Continuous
 62
     7
370
    15
100
AcDbLine
 10
1150.1890486962
 20
-133.8259440238
 30
0.0
 11
1151.1889762169
 21
-132.8259457225
 31
0.0
  0
LINE
  5
32C
330
1F
100
AcDbEntity
  8
0
  6
Continuous
 62
     7
370
    15
100
AcDbLine
 10
1151.1889762169
 20
-109.8259456778
 30
0.0
 11
1150.1890486962
 21
-108.8259455139
 31
0.0
  0
LINE
  5
32D
330
1F
100
AcDbEntity
  8
0
  6
Continuous
 62
     7
370
    15
100
AcDbLine
 10
1028.7389821297
 20
-133.8259440238
 30
0.0
 11
1081.7050999886
 21
-133.8259440238
 31
0.0
  0
LINE
  5
32E
330
1F
100
AcDbEntity
  8
0
  6
Continuous
 62
     7
370
    15
100
AcDbLine
 10
1119.7578973061
 20
-133.8259440238
 30
0.0
 11
1150.1890486962
 21
-133.8259440238
 31
0.0
  0
LINE
  5
32F
330
1F
100
AcDbEntity
  8
0
  6
Continuous
 62
     7
370
    15
100
AcDbLine
 10
258.7390012032
 20
-133.8259440238
 30
0.0
 11
1013.6709279305
 21
-133.8259440238
 31
0.0
  0
LINE
  5
330
330
1F
100
AcDbEntity
  8
0
  6
Continuous
 62
     7
370
    15
100
AcDbLine
 10
-511.2609806546
 20
-133.8259440238
 30
0.0
 11
-501.3341465109
 21
-133.8259440238
 31
0.0
  0
LINE
  5
331
330
1F
100
AcDbEntity
  8
0
  6
Continuous
 62
     7
370
    15
100
AcDbLine
 10
-471.3341453188
 20
-133.8259440238
 30
0.0
 11
198.6658639199
 21
-133.8259440238
 31
0.0
  0
LINE
  5
332
330
1F
100
AcDbEntity
  8
0
  6
Continuous
 62
     7
370
    15
100
AcDbLine
 10
228.6658353097
 20
-133.8259440238
 30
0.0
 11
243.6710066086
 21
-133.8259440238
 31
0.0
  0
LINE
  5
333
330
1F
100
AcDbEntity
  8
0
  6
Continuous
 62
     7
370
    15
100
AcDbLine
 10
-647.8109740728
 20
-133.8259440238
 30
0.0
 11
-617.2948637122
 21
-133.8259440238
 31
0.0
  0
LINE
  5
334
330
1F
100
AcDbEntity
  8
0
  6
Continuous
 62
     7
370
    15
100
AcDbLine
 10
-579.2420812958
 20
-133.8259440238
 30
0.0
 11
-526.329022281
 21
-133.8259440238
 31
0.0
  0
LINE
  5
335
330
1F
100
AcDbEntity
  8
0
  6
Continuous
 62
     7
370
    15
100
AcDbLine
 10
-526.3109807001
 20
-108.8259455139
 30
0.0
 11
-579.3122955674
 21
-108.8259455139
 31
0.0
  0
LINE
  5
336
330
1F
100
AcDbEntity
  8
0
  6
Continuous
 62
     7
370
    15
100
AcDbLine
 10
-617.3036255949
 20
-108.8259455139
 30
0.0
 11
-647.8109740728
 21
-108.8259455139
 31
0.0
  0
LINE
  5
337
330
1F
100
AcDbEntity
  8
0
  6
Continuous
 62
     7
370
    15
100
AcDbLine
 10
243.6890072114
 20
-108.8259455139
 30
0.0
 11
227.6658481843
 21
-108.8259455139
 31
0.0
  0
LINE
  5
338
330
1F
100
AcDbEntity
  8
0
  6
Continuous
 62
     7
370
    15
100
AcDbLine
 10
199.6658510453
 20
-108.8259455139
 30
0.0
 11
-472.3341473454
 21
-108.8259455139
 31
0.0
  0
LINE
  5
339
330
1F
100
AcDbEntity
  8
0
  6
Continuous
 62
     7
370
    15
100
AcDbLine
 10
-500.334146347
 20
-108.8259455139
 30
0.0
 11
-511.3109810353
 21
-108.8259455139
 31
0.0
  0
LINE
  5
33A
330
1F
100
AcDbEntity
  8
0
  6
Continuous
 62
     7
370
    15
100
AcDbLine
 10
1013.6890477425
 20
-108.8259455139
 30
0.0
 11
258.6889929062
 21
-108.8259455139
 31
0.0
  0
LINE
  5
33B
330
1F
100
AcDbEntity
  8
0
  6
Continuous
 62
     7
370
    15
100
AcDbLine
 10
1150.1890486962
 20
-108.8259455139
 30
0.0
 11
1119.6876830346
 21
-108.8259455139
 31
0.0
  0
LINE
  5
33C
330
1F
100
AcDbEntity
  8
0
  6
Continuous
 62
     7
370
    15
100
AcDbLine
 10
1081.6963977105
 20
-108.8259455139
 30
0.0
 11
1028.6890334374
 21
-108.8259455139
 31
0.0
  0
LINE
  5
33D
330
1F
100
AcDbEntity
  8
0
  6
Continuous
 62
     7
370
    15
100
AcDbLine
 10
-647.8109740728
 20
-108.8259455139
 30
0.0
 11
-648.8109760993
 21
-109.8259456778
 31
0.0
  0
LINE
  5
33E
330
1F
100
AcDbEntity
  8
0
  6
Continuous
 62
     7
370
    15
100
AcDbLine
 10
-648.8109760993
 20
-132.8259457225
 30
0.0
 11
-647.8109740728
 21
-133.8259440238
 31
0.0
  0
LINE
  5
33F
330
1F
100
AcDbEntity
  8
0
  6
Continuous
 62
     7
370
    15
100
AcDbLine
 10
1075.3890342003
 20
-134.2259470696
 30
0.0
 11
1075.3890342003
 21
-152.425945955
 31
0.0
  0
LINE
  5
340
330
1F
100
AcDbEntity
  8
0
  6
Continuous
 62
     7
370
    15
100
AcDbLine
 10
1080.4890460259
 20
-152.425945955
 30
0.0
 11
1080.4890460259
 21
-134.2259470696
 31
0.0
  0
LINE
  5
341
330
1F
100
AcDbEntity
  8
0
  6
Continuous
 62
     7
370
    15
100
AcDbLine
 10
1075.1890010125
 20
-152.2259425694
 30
0.0
 11
1075.1890010125
 21
-134.4259467298
 31
0.0
  0
LINE
  5
342
330
1F
100
AcDbEntity
  8
0
  6
Continuous
 62
     7
370
    15
100
AcDbLine
 10
-578.1109825784
 20
-149.04268946
 30
0.0
 11
-578.1109825784
 21
-152.425945955
 31
0.0
  0
LINE
  5
343
330
1F
100
AcDbEntity
  8
0
  6
Continuous
 62
     7
370
    15
100
AcDbLine
 10
-578.1109825784
 20
-134.2259470696
 30
0.0
 11
-578.1109825784
 21
-149.04268946
 31
0.0
  0
LINE
  5
344
330
1F
100
AcDbEntity
  8
0
  6
Continuous
 62
     7
370
    15
100
AcDbLine
 10
-573.0109819287
 20
-149.04268946
 30
0.0
 11
-573.0109819287
 21
-134.2259470696
 31
0.0
  0
LINE
  5
345
330
1F
100
AcDbEntity
  8
0
  6
Continuous
 62
     7
370
    15
100
AcDbLine
 10
-573.0109819287
 20
-152.425945955
 30
0.0
 11
-573.0109819287
 21
-149.04268946
 31
0.0
  0
LINE
  5
346
330
1F
100
AcDbEntity
  8
0
  6
Continuous
 62
     7
370
    15
100
AcDbLine
 10
-572.8109822684
 20
-148.9170465941
 30
0.0
 11
-572.8109822684
 21
-152.2259425694
 31
0.0
  0
LINE
  5
347
330
1F
100
AcDbEntity
  8
0
  6
Continuous
 62
     7
370
    15
100
AcDbLine
 10
-572.8109822684
 20
-134.4259467298
 30
0.0
 11
-572.8109822684
 21
-148.9170465941
 31
0.0
  0
LINE
  5
348
330
1F
100
AcDbEntity
  8
0
  6
Continuous
 62
     7
370
    15
100
AcDbLine
 10
1050.1890248543
 20
-137.9224334234
 30
0.0
 11
1050.1890248543
 21
-137.6759458655
 31
0.0
  0
LINE
  5
349
330
1F
100
AcDbEntity
  8
0
  6
Continuous
 62
     7
370
    15
100
AcDbLine
 10
1050.1890248543
 20
-148.975947159
 30
0.0
 11
1050.1890248543
 21
-137.9224334234
 31
0.0
  0
LINE
  5
34A
330
1F
100
AcDbEntity
  8
0
  6
Continuous
 62
     7
370
    15
100
AcDbLine
 10
-563.8109826558
 20
-138.7324940735
 30
0.0
 11
-563.8109826558
 21
-148.975947159
 31
0.0
  0
LINE
  5
34B
330
1F
100
AcDbEntity
  8
0
  6
Continuous
 62
     7
370
    15
100
AcDbLine
 10
-563.8109826558
 20
-137.6759458655
 30
0.0
 11
-563.8109826558
 21
-138.7324940735
 31
0.0
  0
LINE
  5
34C
330
1F
100
AcDbEntity
  8
0
  6
Continuous
 62
     7
370
    15
100
AcDbLine
 10
1048.1890506035
 20
-138.3259456927
 30
0.0
 11
1048.1890506035
 21
-148.3259473318
 31
0.0
  0
LINE
  5
34D
330
1F
100
AcDbEntity
  8
0
  6
Continuous
 62
     7
370
    15
100
AcDbLine
 10
-561.810982328
 20
-148.3259473318
 30
0.0
 11
-561.810982328
 21
-138.3259456927
 31
0.0
  0
LINE
  5
34E
330
1F
100
AcDbEntity
  8
0
  6
Continuous
 62
     7
370
    15
100
AcDbLine
 10
1120.8890742547
 20
-138.1780069644
 30
0.0
 11
1120.8890742547
 21
-134.8509464735
 31
0.0
  0
LINE
  5
34F
330
1F
100
AcDbEntity
  8
0
  6
Continuous
 62
     7
370
    15
100
AcDbLine
 10
1120.8890742547
 20
-151.800946551
 30
0.0
 11
1120.8890742547
 21
-138.1780069644
 31
0.0
  0
LINE
  5
350
330
1F
100
AcDbEntity
  8
0
  6
Continuous
 62
     7
370
    15
100
AcDbLine
 10
1121.1890048272
 20
-138.3602369899
 30
0.0
 11
1121.1890048272
 21
-151.5009489233
 31
0.0
  0
LINE
  5
351
330
1F
100
AcDbEntity
  8
0
  6
Continuous
 62
     7
370
    15
100
AcDbLine
 10
1121.1890048272
 20
-135.1509441013
 30
0.0
 11
1121.1890048272
 21
-138.3602369899
 31
0.0
  0
LINE
  5
352
330
1F
100
AcDbEntity
  8
0
  6
Continuous
 62
     7
370
    15
100
AcDbLine
 10
-618.5109772795
 20
-134.8509464735
 30
0.0
 11
-618.5109772795
 21
-151.800946551
 31
0.0
  0
LINE
  5
353
330
1F
100
AcDbEntity
  8
0
  6
Continuous
 62
     7
370
    15
100
AcDbLine
 10
-618.8109823578
 20
-151.5009489233
 30
0.0
 11
-618.8109823578
 21
-135.1509441013
 31
0.0
  0
LINE
  5
354
330
1F
100
AcDbEntity
  8
0
  6
Continuous
 62
     7
370
    15
100
AcDbLine
 10
-578.3109822386
 20
-154.025943237
 30
0.0
 11
-618.3109813445
 21
-154.025943237
 31
0.0
  0
LINE
  5
355
330
1F
100
AcDbEntity
  8
0
  6
Continuous
 62
     7
370
    15
100
AcDbLine
 10
-578.5357811564
 20
-153.825947302
 30
0.0
 11
-578.5109818989
 21
-153.825947302
 31
0.0
  0
LINE
  5
356
330
1F
100
AcDbEntity
  8
0
  6
Continuous
 62
     7
370
    15
100
AcDbLine
 10
-618.110977959
 20
-153.825947302
 30
0.0
 11
-578.5357811564
 21
-153.825947302
 31
0.0
  0
LINE
  5
357
330
1F
100
AcDbEntity
  8
0
  6
Continuous
 62
     7
370
    15
100
AcDbLine
 10
-578.3360310906
 20
-156.8259459311
 30
0.0
 11
-578.3109822386
 21
-156.8259459311
 31
0.0
  0
LINE
  5
358
330
1F
100
AcDbEntity
  8
0
  6
Continuous
 62
     7
370
    15
100
AcDbLine
 10
-618.3109813445
 20
-156.8259459311
 30
0.0
 11
-578.3360310906
 21
-156.8259459311
 31
0.0
  0
LINE
  5
359
330
1F
100
AcDbEntity
  8
0
  6
Continuous
 62
     7
370
    15
100
AcDbLine
 10
-580.3109825664
 20
-158.8259425336
 30
0.0
 11
-616.3109772914
 21
-158.8259425336
 31
0.0
  0
LINE
  5
35A
330
1F
100
AcDbEntity
  8
0
  6
Continuous
 62
     7
370
    15
100
AcDbLine
 10
1118.7452143914
 20
-154.025943237
 30
0.0
 11
1080.6889600045
 21
-154.025943237
 31
0.0
  0
LINE
  5
35B
330
1F
100
AcDbEntity
  8
0
  6
Continuous
 62
     7
370
    15
100
AcDbLine
 10
1120.6890410668
 20
-154.025943237
 30
0.0
 11
1118.7452143914
 21
-154.025943237
 31
0.0
  0
LINE
  5
35C
330
1F
100
AcDbEntity
  8
0
  6
Continuous
 62
     7
370
    15
100
AcDbLine
 10
1118.5646123177
 20
-153.825947302
 30
0.0
 11
1120.4890078789
 21
-153.825947302
 31
0.0
  0
LINE
  5
35D
330
1F
100
AcDbEntity
  8
0
  6
Continuous
 62
     7
370
    15
100
AcDbLine
 10
1080.8889931923
 20
-153.825947302
 30
0.0
 11
1118.5646123177
 21
-153.825947302
 31
0.0
  0
LINE
  5
35E
330
1F
100
AcDbEntity
  8
0
  6
Continuous
 62
     7
370
    15
100
AcDbLine
 10
1118.7452143914
 20
-156.8259459311
 30
0.0
 11
1120.6890410668
 21
-156.8259459311
 31
0.0
  0
LINE
  5
35F
330
1F
100
AcDbEntity
  8
0
  6
Continuous
 62
     7
370
    15
100
AcDbLine
 10
1080.6889600045
 20
-156.8259459311
 30
0.0
 11
1118.7452143914
 21
-156.8259459311
 31
0.0
  0
LINE
  5
360
330
1F
100
AcDbEntity
  8
0
  6
Continuous
 62
     7
370
    15
100
AcDbLine
 10
1116.9395512826
 20
-158.8259425336
 30
0.0
 11
1082.6890534646
 21
-158.8259425336
 31
0.0
  0
LINE
  5
361
330
1F
100
AcDbEntity
  8
0
  6
Continuous
 62
     7
370
    15
100
AcDbLine
 10
1118.689066816
 20
-158.8259425336
 30
0.0
 11
1116.9395512826
 21
-158.8259425336
 31
0.0
  0
LINE
  5
362
330
1F
100
AcDbEntity
  8
0
  6
Continuous
 62
     7
370
    15
100
AcDbLine
 10
1120.6890410668
 20
-106.6259455258
 30
0.0
 11
1080.6889600045
 21
-106.6259455258
 31
0.0
  0
LINE
  5
363
330
1F
100
AcDbEntity
  8
0
  6
Continuous
 62
     7
370
    15
100
AcDbLine
 10
1080.9890097863
 20
-106.3259460354
 30
0.0
 11
1120.388991285
 21
-106.3259460354
 31
0.0
  0
LINE
  5
364
330
1F
100
AcDbEntity
  8
0
  6
Continuous
 62
     7
370
    15
100
AcDbLine
 10
1080.6889600045
 20
-153.5259422237
 30
0.0
 11
1120.6890410668
 21
-153.5259422237
 31
0.0
  0
SPLINE
  5
365
330
1F
100
AcDbEntity
  8
0
  6
Continuous
 62
     7
370
    15
100
AcDbSpline
210
0.0
220
0.0
230
1.0
 70
     8
 71
     3
 72
    25
 73
    21
 74
     0
 42
0.000000001
 43
0.00000001
 40
0.0
 40
0.0
 40
0.0
 40
0.0
 40
0.0640693747045247
 40
0.1453730518501887
 40
0.2036620115369631
 40
0.2636284547711724
 40
0.3230559660235272
 40
0.3839677645059215
 40
0.4406022895239504
 40
0.4883889708724749
 40
0.5363966882085143
 40
0.5990983799937876
 40
0.6541415985660027
 40
0.7106121663059823
 40
0.7696591965908101
 40
0.8302131658638208
 40
0.8768509160722568
 40
0.924691607758924
 40
0.9714004988456272
 40
0.9999999999999999
 40
0.9999999999999999
 40
0.9999999999999999
 40
0.9999999999999999
 10
1081.186062741909
 20
-108.8259455138803
 30
0.0
 10
1081.420103993172
 20
-108.8014051934095
 30
0.0
 10
1081.951142279589
 20
-108.7457233439038
 30
0.0
 10
1083.368475220381
 20
-109.716187102534
 30
0.0
 10
1084.95872343912
 20
-111.0598145584077
 30
0.0
 10
1086.507909221677
 20
-112.5763664282388
 30
0.0
 10
1088.113289978049
 20
-114.378569862313
 30
0.0
 10
1089.619321733326
 20
-116.4189837521151
 30
0.0
 10
1090.77986883076
 20
-118.6296283807553
 30
0.0
 10
1091.309931294606
 20
-120.9678827074646
 30
0.0
 10
1091.005306448583
 20
-123.4633517398652
 30
0.0
 10
1089.913473002413
 20
-125.7581405033064
 30
0.0
 10
1088.470051956544
 20
-127.821405148832
 30
0.0
 10
1086.957578313821
 20
-129.5949862854923
 30
0.0
 10
1085.405636759509
 20
-131.1746725618086
 30
0.0
 10
1084.030251106604
 20
-132.3960795919533
 30
0.0
 10
1082.887000227328
 20
-133.263255081721
 30
0.0
 10
1082.013328058546
 20
-133.7701495492095
 30
0.0
 10
1081.391459362346
 20
-133.9902869073618
 30
0.0
 10
1081.17606924446
 20
-133.8711775891419
 30
0.0
 10
1081.094271588955
 20
-133.8259440237642
 30
0.0
  0
LWPOLYLINE
  5
366
330
1F
100
AcDbEntity
  8
0
  6
Continuous
 62
     7
370
    15
100
AcDbPolyline
 90
       19
 70
   128
 43
0.0
 10
1120.3744477517
 20
-133.8259440238
 10
1119.9885672814
 20
-133.9235354537
 10
1118.7309092766
 20
-133.3914671415
 10
1116.8066329247
 20
-131.9067489678
 10
1115.1888436562
 20
-130.3679358536
 10
1113.4637660271
 20
-128.4560609931
 10
1112.3027867562
 20
-126.9353080863
 10
1111.2426585442
 20
-125.2024595017
 10
1110.3777951485
 20
-122.9373824174
 10
1110.2039880044
 20
-120.8664600128
 10
1110.6317109353
 20
-118.8457917744
 10
1112.1238536126
 20
-115.9778118456
 10
1113.7049264199
 20
-113.9081541771
 10
1115.3825587517
 20
-112.0878208751
 10
1116.9885463006
 20
-110.5865884894
 10
1118.4644765145
 20
-109.434918719
 10
1119.3524665124
 20
-108.917488935
 10
1120.0538939721
 20
-108.7259456838
 10
1120.0538939721
 20
-108.7259456838
  0
LINE
  5
367
330
1F
100
AcDbEntity
  8
0
  6
Continuous
 62
     7
370
    15
100
AcDbLine
 10
-578.3109822386
 20
-106.6259455258
 30
0.0
 11
-618.3109813445
 21
-106.6259455258
 31
0.0
  0
LINE
  5
368
330
1F
100
AcDbEntity
  8
0
  6
Continuous
 62
     7
370
    15
100
AcDbLine
 10
-618.0109837168
 20
-106.3259460354
 30
0.0
 11
-578.6109798664
 21
-106.3259460354
 31
0.0
  0
LINE
  5
369
330
1F
100
AcDbEntity
  8
0
  6
Continuous
 62
     7
370
    15
100
AcDbLine
 10
-618.3109813445
 20
-153.5259422237
 30
0.0
 11
-578.3109822386
 21
-153.5259422237
 31
0.0
  0
SPLINE
  5
36A
330
1F
100
AcDbEntity
  8
0
  6
Continuous
 62
     7
370
    15
100
AcDbSpline
210
0.0
220
0.0
230
1.0
 70
     8
 71
     3
 72
    25
 73
    21
 74
     0
 42
0.000000001
 43
0.00000001
 40
0.0
 40
0.0
 40
0.0
 40
0.0
 40
0.0640693238081237
 40
0.1453733009234221
 40
0.2036615112321249
 40
0.2636277599840239
 40
0.3230560689631676
 40
0.3839675977668063
 40
0.4406024637565368
 40
0.4883891704296036
 40
0.5363970502930363
 40
0.5990988174976616
 40
0.6541419349768064
 40
0.7106123900624499
 40
0.7696597614289377
 40
0.830213296754474
 40
0.8768508770605946
 40
0.9246914985713095
 40
0.9714005937735561
 40
1.0
 40
1.0
 40
1.0
 40
1.0
 10
-617.8138935082817
 20
-108.8259455138803
 30
0.0
 10
-617.579864384246
 20
-108.8014061147689
 30
0.0
 10
-617.0488522828044
 20
-108.7457262161922
 30
0.0
 10
-615.6314573661566
 20
-109.716173983581
 30
0.0
 10
-614.041313944225
 20
-111.0598203026059
 30
0.0
 10
-612.4921526628607
 20
-112.576386045858
 30
0.0
 10
-610.8866873681449
 20
-114.3785441772231
 30
0.0
 10
-609.3807172850643
 20
-116.4190023881692
 30
0.0
 10
-608.220118097085
 20
-118.6296181542892
 30
0.0
 10
-607.6900590651261
 20
-120.9678880432699
 30
0.0
 10
-607.9947579849568
 20
-123.4633476139292
 30
0.0
 10
-609.0865691679819
 20
-125.7581373848275
 30
0.0
 10
-610.5299816547168
 20
-127.8214041087512
 30
0.0
 10
-612.0424304363895
 20
-129.5949956363166
 30
0.0
 10
-613.5944117660649
 20
-131.1746592555345
 30
0.0
 10
-614.9697398466744
 20
-132.3960832455357
 30
0.0
 10
-616.1129753532049
 20
-133.2632552840163
 30
0.0
 10
-616.9866138833662
 20
-133.7701507662595
 30
0.0
 10
-617.6085358096474
 20
-133.9902869977628
 30
0.0
 10
-617.8238926013228
 20
-133.8711774576762
 30
0.0
 10
-617.9056772106552
 20
-133.8259440237642
 30
0.0
  0
LWPOLYLINE
  5
36B
330
1F
100
AcDbEntity
  8
0
  6
Continuous
 62
     7
370
    15
100
AcDbPolyline
 90
       19
 70
   128
 43
0.0
 10
-578.6255606526
 20
-133.8259440238
 10
-579.0113964194
 20
-133.9235354537
 10
-580.2691401058
 20
-133.3914671415
 10
-582.1933531278
 20
-131.9067489678
 10
-583.8110976928
 20
-130.3679358536
 10
-585.5362721795
 20
-128.4560609931
 10
-586.6971992963
 20
-126.9353080863
 10
-587.7573647612
 20
-125.2024595017
 10
-588.6222505086
 20
-122.9373824174
 10
-588.7959980482
 20
-120.8664600128
 10
-588.3683347219
 20
-118.8457917744
 10
-586.8761249894
 20
-115.9778118456
 10
-585.2951192373
 20
-113.9081541771
 10
-583.6174720043
 20
-112.0878208751
 10
-582.0114323014
 20
-110.5865884894
 10
-580.5355207139
 20
-109.434918719
 10
-579.6475605184
 20
-108.917488935
 10
-578.9460622781
 20
-108.7259456838
 10
-578.9460622781
 20
-108.7259456838
  0
LINE
  5
36C
330
1F
100
AcDbEntity
  8
0
  6
Continuous
 62
     7
370
    15
100
AcDbLine
 10
-471.5961263591
 20
-110.8259458417
 30
0.0
 11
-471.3341453188
 21
-110.8259458417
 31
0.0
  0
LINE
  5
36D
330
1F
100
AcDbEntity
  8
0
  6
Continuous
 62
     7
370
    15
100
AcDbLine
 10
-501.3341465109
 20
-110.8259458417
 30
0.0
 11
-471.5961263591
 21
-110.8259458417
 31
0.0
  0
LINE
  5
36E
330
1F
100
AcDbEntity
  8
0
  6
Continuous
 62
     7
370
    15
100
AcDbLine
 10
-471.3341453188
 20
-109.8259456778
 30
0.0
 11
-501.3341465109
 21
-109.8259456778
 31
0.0
  0
LINE
  5
36F
330
1F
100
AcDbEntity
  8
0
  6
Continuous
 62
     7
370
    15
100
AcDbLine
 10
-499.3341461831
 20
-107.82594535
 30
0.0
 11
-473.3341456467
 21
-107.82594535
 31
0.0
  0
LINE
  5
370
330
1F
100
AcDbEntity
  8
0
  6
Continuous
 62
     7
370
    15
100
AcDbLine
 10
200.6658381707
 20
-107.82594535
 30
0.0
 11
226.6658610589
 21
-107.82594535
 31
0.0
  0
LINE
  5
371
330
1F
100
AcDbEntity
  8
0
  6
Continuous
 62
     7
370
    15
100
AcDbLine
 10
228.6658353097
 20
-109.8259456778
 30
0.0
 11
198.6658639199
 21
-109.8259456778
 31
0.0
  0
LINE
  5
372
330
1F
100
AcDbEntity
  8
0
  6
Continuous
 62
     7
370
    15
100
AcDbLine
 10
228.4038728959
 20
-110.8259458417
 30
0.0
 11
228.6658353097
 21
-110.8259458417
 31
0.0
  0
LINE
  5
373
330
1F
100
AcDbEntity
  8
0
  6
Continuous
 62
     7
370
    15
100
AcDbLine
 10
198.6658639199
 20
-110.8259458417
 30
0.0
 11
228.4038728959
 21
-110.8259458417
 31
0.0
  0
LINE
  5
374
330
1F
100
AcDbEntity
  8
0
  6
Continuous
 62
     7
370
    15
100
AcDbLine
 10
212.8278083092
 20
-131.1259467477
 30
0.0
 11
198.6658639199
 21
-131.1259467477
 31
0.0
  0
LINE
  5
375
330
1F
100
AcDbEntity
  8
0
  6
Continuous
 62
     7
370
    15
100
AcDbLine
 10
228.6658353097
 20
-131.1259467477
 30
0.0
 11
212.8278083092
 21
-131.1259467477
 31
0.0
  0
LINE
  5
376
330
1F
100
AcDbEntity
  8
0
  6
Continuous
 62
     7
370
    15
100
AcDbLine
 10
212.8278083092
 20
-137.5259470517
 30
0.0
 11
228.6658353097
 21
-137.5259470517
 31
0.0
  0
LINE
  5
377
330
1F
100
AcDbEntity
  8
0
  6
Continuous
 62
     7
370
    15
100
AcDbLine
 10
198.6658639199
 20
-137.5259470517
 30
0.0
 11
212.8278083092
 21
-137.5259470517
 31
0.0
  0
LINE
  5
378
330
1F
100
AcDbEntity
  8
0
  6
Continuous
 62
     7
370
    15
100
AcDbLine
 10
212.8445572144
 20
-130.8259453947
 30
0.0
 11
228.3658451325
 21
-130.8259453947
 31
0.0
  0
LINE
  5
379
330
1F
100
AcDbEntity
  8
0
  6
Continuous
 62
     7
370
    15
100
AcDbLine
 10
198.965854097
 20
-130.8259453947
 30
0.0
 11
212.8445572144
 21
-130.8259453947
 31
0.0
  0
LINE
  5
37A
330
1F
100
AcDbEntity
  8
0
  6
Continuous
 62
     7
370
    15
100
AcDbLine
 10
-487.1554271394
 20
-130.8259453947
 30
0.0
 11
-471.6341466719
 21
-130.8259453947
 31
0.0
  0
LINE
  5
37B
330
1F
100
AcDbEntity
  8
0
  6
Continuous
 62
     7
370
    15
100
AcDbLine
 10
-501.0341470205
 20
-130.8259453947
 30
0.0
 11
-487.1554271394
 21
-130.8259453947
 31
0.0
  0
LINE
  5
37C
330
1F
100
AcDbEntity
  8
0
  6
Continuous
 62
     7
370
    15
100
AcDbLine
 10
-487.1721872204
 20
-131.1259467477
 30
0.0
 11
-501.3341465109
 21
-131.1259467477
 31
0.0
  0
LINE
  5
37D
330
1F
100
AcDbEntity
  8
0
  6
Continuous
 62
     7
370
    15
100
AcDbLine
 10
-471.3341453188
 20
-131.1259467477
 30
0.0
 11
-487.1721872204
 21
-131.1259467477
 31
0.0
  0
LINE
  5
37E
330
1F
100
AcDbEntity
  8
0
  6
Continuous
 62
     7
370
    15
100
AcDbLine
 10
-487.1721872204
 20
-137.5259470517
 30
0.0
 11
-471.3341453188
 21
-137.5259470517
 31
0.0
  0
LINE
  5
37F
330
1F
100
AcDbEntity
  8
0
  6
Continuous
 62
     7
370
    15
100
AcDbLine
 10
-501.3341465109
 20
-137.5259470517
 30
0.0
 11
-487.1721872204
 21
-137.5259470517
 31
0.0
  0
LINE
  5
380
330
1F
100
AcDbEntity
  8
0
  6
Continuous
 62
     7
370
    15
100
AcDbLine
 10
242.6158255822
 20
-111.1959453994
 30
0.0
 11
184.7158736474
 21
-111.1959453994
 31
0.0
  0
LINE
  5
381
330
1F
100
AcDbEntity
  8
0
  6
Continuous
 62
     7
370
    15
100
AcDbLine
 10
242.6158255822
 20
-111.6959464127
 30
0.0
 11
184.7158736474
 21
-111.6959464127
 31
0.0
  0
LINE
  5
382
330
1F
100
AcDbEntity
  8
0
  6
Continuous
 62
     7
370
    15
100
AcDbLine
 10
184.7158736474
 20
-130.4559458369
 30
0.0
 11
242.6158255822
 21
-130.4559458369
 31
0.0
  0
LINE
  5
383
330
1F
100
AcDbEntity
  8
0
  6
Continuous
 62
     7
370
    15
100
AcDbLine
 10
184.7158736474
 20
-129.9559448237
 30
0.0
 11
242.6158255822
 21
-129.9559448237
 31
0.0
  0
LINE
  5
384
330
1F
100
AcDbEntity
  8
0
  6
Continuous
 62
     7
370
    15
100
AcDbLine
 10
-457.3841475957
 20
-111.1959453994
 30
0.0
 11
-515.2841465623
 21
-111.1959453994
 31
0.0
  0
LINE
  5
385
330
1F
100
AcDbEntity
  8
0
  6
Continuous
 62
     7
370
    15
100
AcDbLine
 10
-457.3841475957
 20
-111.6959464127
 30
0.0
 11
-515.2841465623
 21
-111.6959464127
 31
0.0
  0
LINE
  5
386
330
1F
100
AcDbEntity
  8
0
  6
Continuous
 62
     7
370
    15
100
AcDbLine
 10
-515.2841465623
 20
-130.4559458369
 30
0.0
 11
-457.3841475957
 21
-130.4559458369
 31
0.0
  0
LINE
  5
387
330
1F
100
AcDbEntity
  8
0
  6
Continuous
 62
     7
370
    15
100
AcDbLine
 10
-515.2841465623
 20
-129.9559448237
 30
0.0
 11
-457.3841475957
 21
-129.9559448237
 31
0.0
  0
LINE
  5
388
330
1F
100
AcDbEntity
  8
0
  6
Continuous
 62
     7
370
    15
100
AcDbLine
 10
313.7158817536
 20
-141.8259453351
 30
0.0
 11
313.7158817536
 21
-133.8259440238
 31
0.0
  0
LINE
  5
389
330
1F
100
AcDbEntity
  8
0
  6
Continuous
 62
     7
370
    15
100
AcDbLine
 10
313.7158817536
 20
-108.8259455139
 30
0.0
 11
313.7158817536
 21
-101.8259452978
 31
0.0
  0
LINE
  5
38A
330
1F
100
AcDbEntity
  8
0
  6
Continuous
 62
     7
370
    15
100
AcDbLine
 10
313.7158817536
 20
-141.8259453351
 30
0.0
 11
228.6658353097
 21
-141.8259453351
 31
0.0
  0
LINE
  5
38B
330
1F
100
AcDbEntity
  8
0
  6
Continuous
 62
     7
370
    15
100
AcDbLine
 10
198.6658639199
 20
-141.8259453351
 30
0.0
 11
-471.3341453188
 21
-141.8259453351
 31
0.0
  0
LINE
  5
38C
330
1F
100
AcDbEntity
  8
0
  6
Continuous
 62
     7
370
    15
100
AcDbLine
 10
-501.3341465109
 20
-141.8259453351
 30
0.0
 11
-561.810982328
 21
-141.8259453351
 31
0.0
  0
LINE
  5
38D
330
1F
100
AcDbEntity
  8
0
  6
Continuous
 62
     7
370
    15
100
AcDbLine
 10
-586.2841465586
 20
-106.3259460354
 30
0.0
 11
-586.2841465586
 21
-101.8259452978
 31
0.0
  0
LINE
  5
38E
330
1F
100
AcDbEntity
  8
0
  6
Continuous
 62
     7
370
    15
100
AcDbLine
 10
313.7158817536
 20
-101.8259452978
 30
0.0
 11
258.6889929062
 21
-101.8259452978
 31
0.0
  0
LINE
  5
38F
330
1F
100
AcDbEntity
  8
0
  6
Continuous
 62
     7
370
    15
100
AcDbLine
 10
243.6890072114
 20
-101.8259452978
 30
0.0
 11
-511.3109810353
 21
-101.8259452978
 31
0.0
  0
LINE
  5
390
330
1F
100
AcDbEntity
  8
0
  6
Continuous
 62
     7
370
    15
100
AcDbLine
 10
-526.3109807001
 20
-101.8259452978
 30
0.0
 11
-586.2841465586
 21
-101.8259452978
 31
0.0
  0
LINE
  5
391
330
1F
100
AcDbEntity
  8
0
  6
Continuous
 62
     7
370
    15
100
AcDbLine
 10
-501.3341465109
 20
-147.8259463185
 30
0.0
 11
-471.3341453188
 21
-147.8259463185
 31
0.0
  0
LINE
  5
392
330
1F
100
AcDbEntity
  8
0
  6
Continuous
 62
     7
370
    15
100
AcDbLine
 10
-501.3341465109
 20
-149.8259466464
 30
0.0
 11
-471.3341453188
 21
-149.8259466464
 31
0.0
  0
LINE
  5
393
330
1F
100
AcDbEntity
  8
0
  6
Continuous
 62
     7
370
    15
100
AcDbLine
 10
-473.3341456467
 20
-151.8259432489
 30
0.0
 11
-499.3341461831
 21
-151.8259432489
 31
0.0
  0
LINE
  5
394
330
1F
100
AcDbEntity
  8
0
  6
Continuous
 62
     7
370
    15
100
AcDbLine
 10
198.6658639199
 20
-149.8259466464
 30
0.0
 11
228.6658353097
 21
-149.8259466464
 31
0.0
  0
LINE
  5
395
330
1F
100
AcDbEntity
  8
0
  6
Continuous
 62
     7
370
    15
100
AcDbLine
 10
198.6658639199
 20
-147.8259463185
 30
0.0
 11
228.6658353097
 21
-147.8259463185
 31
0.0
  0
LINE
  5
396
330
1F
100
AcDbEntity
  8
0
  6
Continuous
 62
     7
370
    15
100
AcDbLine
 10
226.6658610589
 20
-151.8259432489
 30
0.0
 11
200.6658381707
 21
-151.8259432489
 31
0.0
  0
LINE
  5
397
330
1F
100
AcDbEntity
  8
0
  6
Continuous
 62
     7
370
    15
100
AcDbLine
 10
-471.3341453188
 20
-138.0259443397
 30
0.0
 11
-501.3341465109
 21
-138.0259443397
 31
0.0
  0
LINE
  5
398
330
1F
100
AcDbEntity
  8
0
  6
Continuous
 62
     7
370
    15
100
AcDbLine
 10
-501.1341468507
 20
-137.8259446794
 30
0.0
 11
-471.5341449791
 21
-137.8259446794
 31
0.0
  0
LINE
  5
399
330
1F
100
AcDbEntity
  8
0
  6
Continuous
 62
     7
370
    15
100
AcDbLine
 10
-501.3341465109
 20
-141.6259456748
 30
0.0
 11
-471.3341453188
 21
-141.6259456748
 31
0.0
  0
LINE
  5
39A
330
1F
100
AcDbEntity
  8
0
  6
Continuous
 62
     7
370
    15
100
AcDbLine
 10
228.6658353097
 20
-138.0259443397
 30
0.0
 11
198.6658639199
 21
-138.0259443397
 31
0.0
  0
LINE
  5
39B
330
1F
100
AcDbEntity
  8
0
  6
Continuous
 62
     7
370
    15
100
AcDbLine
 10
198.8658375031
 20
-137.8259446794
 30
0.0
 11
228.4658617264
 21
-137.8259446794
 31
0.0
  0
LINE
  5
39C
330
1F
100
AcDbEntity
  8
0
  6
Continuous
 62
     7
370
    15
100
AcDbLine
 10
198.6658639199
 20
-141.6259456748
 30
0.0
 11
228.6658353097
 21
-141.6259456748
 31
0.0
  0
LINE
  5
39D
330
1F
100
AcDbEntity
  8
0
  6
Continuous
 62
     7
370
    15
100
AcDbLine
 10
184.6658653504
 20
-111.8259460056
 30
0.0
 11
242.6658338791
 21
-111.8259460056
 31
0.0
  0
LINE
  5
39E
330
1F
100
AcDbEntity
  8
0
  6
Continuous
 62
     7
370
    15
100
AcDbLine
 10
235.9789079911
 20
-112.8463737989
 30
0.0
 11
242.6658338791
 21
-112.8463737989
 31
0.0
  0
LINE
  5
39F
330
1F
100
AcDbEntity
  8
0
  6
Continuous
 62
     7
370
    15
100
AcDbLine
 10
184.6658653504
 20
-112.8463737989
 30
0.0
 11
235.9789079911
 21
-112.8463737989
 31
0.0
  0
LINE
  5
3A0
330
1F
100
AcDbEntity
  8
0
  6
Continuous
 62
     7
370
    15
100
AcDbLine
 10
242.6658338791
 20
-128.8576212103
 30
0.0
 11
184.6658653504
 21
-128.8576212103
 31
0.0
  0
LINE
  5
3A1
330
1F
100
AcDbEntity
  8
0
  6
Continuous
 62
     7
370
    15
100
AcDbLine
 10
184.6658653504
 20
-129.8259470934
 30
0.0
 11
242.6658338791
 21
-129.8259470934
 31
0.0
  0
LINE
  5
3A2
330
1F
100
AcDbEntity
  8
0
  6
Continuous
 62
     7
370
    15
100
AcDbLine
 10
-515.3341467102
 20
-111.8259460056
 30
0.0
 11
-457.3341467493
 21
-111.8259460056
 31
0.0
  0
LINE
  5
3A3
330
1F
100
AcDbEntity
  8
0
  6
Continuous
 62
     7
370
    15
100
AcDbLine
 10
-464.0210651868
 20
-112.8463737989
 30
0.0
 11
-457.3341467493
 21
-112.8463737989
 31
0.0
  0
LINE
  5
3A4
330
1F
100
AcDbEntity
  8
0
  6
Continuous
 62
     7
370
    15
100
AcDbLine
 10
-515.3341467102
 20
-112.8463737989
 30
0.0
 11
-464.0210651868
 21
-112.8463737989
 31
0.0
  0
LINE
  5
3A5
330
1F
100
AcDbEntity
  8
0
  6
Continuous
 62
     7
370
    15
100
AcDbLine
 10
-457.3341467493
 20
-128.8576212103
 30
0.0
 11
-515.3341467102
 21
-128.8576212103
 31
0.0
  0
LINE
  5
3A6
330
1F
100
AcDbEntity
  8
0
  6
Continuous
 62
     7
370
    15
100
AcDbLine
 10
-515.3341467102
 20
-129.8259470934
 30
0.0
 11
-457.3341467493
 21
-129.8259470934
 31
0.0
  0
LINE
  5
3A7
330
1F
100
AcDbEntity
  8
0
  6
Continuous
 62
     7
370
    15
100
AcDbLine
 10
-471.3341453188
 20
-149.8259466464
 30
0.0
 11
-471.2841481977
 21
-149.8259466464
 31
0.0
  0
LINE
  5
3A8
330
1F
100
AcDbEntity
  8
0
  6
Continuous
 62
     7
370
    15
100
AcDbLine
 10
-471.3341453188
 20
-147.8259463185
 30
0.0
 11
-471.2841481977
 21
-147.8259463185
 31
0.0
  0
LINE
  5
3A9
330
1F
100
AcDbEntity
  8
0
  6
Continuous
 62
     7
370
    15
100
AcDbLine
 10
-473.2841448003
 20
-151.8259432489
 30
0.0
 11
-473.3341456467
 21
-151.8259432489
 31
0.0
  0
LINE
  5
3AA
330
1F
100
AcDbEntity
  8
0
  6
Continuous
 62
     7
370
    15
100
AcDbLine
 10
228.6658353097
 20
-147.8259463185
 30
0.0
 11
228.7158436066
 21
-147.8259463185
 31
0.0
  0
LINE
  5
3AB
330
1F
100
AcDbEntity
  8
0
  6
Continuous
 62
     7
370
    15
100
AcDbLine
 10
228.6658353097
 20
-149.8259466464
 30
0.0
 11
228.7158436066
 21
-149.8259466464
 31
0.0
  0
LINE
  5
3AC
330
1F
100
AcDbEntity
  8
0
  6
Continuous
 62
     7
370
    15
100
AcDbLine
 10
226.7158693558
 20
-151.8259432489
 30
0.0
 11
226.6658610589
 21
-151.8259432489
 31
0.0
  0
LINE
  5
3AD
330
1F
100
AcDbEntity
  8
0
  6
Continuous
 62
     7
370
    15
100
AcDbLine
 10
198.6658639199
 20
-141.8259453351
 30
0.0
 11
198.6658639199
 21
-147.8259463185
 31
0.0
  0
LINE
  5
3AE
330
1F
100
AcDbEntity
  8
0
  6
Continuous
 62
     7
370
    15
100
AcDbLine
 10
228.6658353097
 20
-141.8259453351
 30
0.0
 11
228.6658353097
 21
-147.8259463185
 31
0.0
  0
LINE
  5
3AF
330
1F
100
AcDbEntity
  8
0
  6
Continuous
 62
     7
370
    15
100
AcDbLine
 10
198.6658639199
 20
-141.8259453351
 30
0.0
 11
228.6658353097
 21
-141.8259453351
 31
0.0
  0
LINE
  5
3B0
330
1F
100
AcDbEntity
  8
0
  6
Continuous
 62
     7
370
    15
100
AcDbLine
 10
-501.3341465109
 20
-141.8259453351
 30
0.0
 11
-501.3341465109
 21
-147.8259463185
 31
0.0
  0
LINE
  5
3B1
330
1F
100
AcDbEntity
  8
0
  6
Continuous
 62
     7
370
    15
100
AcDbLine
 10
-501.3341465109
 20
-141.8259453351
 30
0.0
 11
-471.3341453188
 21
-141.8259453351
 31
0.0
  0
LINE
  5
3B2
330
1F
100
AcDbEntity
  8
0
  6
Continuous
 62
     7
370
    15
100
AcDbLine
 10
-471.3341453188
 20
-141.8259453351
 30
0.0
 11
-471.3341453188
 21
-147.8259463185
 31
0.0
  0
LINE
  5
3B3
330
1F
100
AcDbEntity
  8
0
  6
Continuous
 62
     7
370
    15
100
AcDbLine
 10
206.7239350564
 20
-99.8259459013
 30
0.0
 11
198.7158722169
 21
-99.8259459013
 31
0.0
  0
LINE
  5
3B4
330
1F
100
AcDbEntity
  8
0
  6
Continuous
 62
     7
370
    15
100
AcDbLine
 10
228.7158436066
 20
-99.8259459013
 30
0.0
 11
206.7239350564
 21
-99.8259459013
 31
0.0
  0
LINE
  5
3B5
330
1F
100
AcDbEntity
  8
0
  6
Continuous
 62
     7
370
    15
100
AcDbLine
 10
207.6562113053
 20
-97.8259455735
 30
0.0
 11
226.7158693558
 21
-97.8259455735
 31
0.0
  0
LINE
  5
3B6
330
1F
100
AcDbEntity
  8
0
  6
Continuous
 62
     7
370
    15
100
AcDbLine
 10
200.7158464676
 20
-97.8259455735
 30
0.0
 11
207.6562113053
 21
-97.8259455735
 31
0.0
  0
LINE
  5
3B7
330
1F
100
AcDbEntity
  8
0
  6
Continuous
 62
     7
370
    15
100
AcDbLine
 10
-493.2760455721
 20
-99.8259459013
 30
0.0
 11
-501.2841475272
 21
-99.8259459013
 31
0.0
  0
LINE
  5
3B8
330
1F
100
AcDbEntity
  8
0
  6
Continuous
 62
     7
370
    15
100
AcDbLine
 10
-471.2841481977
 20
-99.8259459013
 30
0.0
 11
-493.2760455721
 21
-99.8259459013
 31
0.0
  0
LINE
  5
3B9
330
1F
100
AcDbEntity
  8
0
  6
Continuous
 62
     7
370
    15
100
AcDbLine
 10
-492.3437935376
 20
-97.8259455735
 30
0.0
 11
-473.2841448003
 21
-97.8259455735
 31
0.0
  0
LINE
  5
3BA
330
1F
100
AcDbEntity
  8
0
  6
Continuous
 62
     7
370
    15
100
AcDbLine
 10
-499.2841471994
 20
-97.8259455735
 30
0.0
 11
-492.3437935376
 21
-97.8259455735
 31
0.0
  0
LINE
  5
3BB
330
1F
100
AcDbEntity
  8
0
  6
Continuous
 62
     7
370
    15
100
AcDbLine
 10
246.8163437134
 20
-133.8259440238
 30
0.0
 11
258.6390442139
 21
-133.8259440238
 31
0.0
  0
LINE
  5
3BC
330
1F
100
AcDbEntity
  8
0
  6
Continuous
 62
     7
370
    15
100
AcDbLine
 10
243.7390155083
 20
-133.8259440238
 30
0.0
 11
246.8163437134
 21
-133.8259440238
 31
0.0
  0
LINE
  5
3BD
330
1F
100
AcDbEntity
  8
0
  6
Continuous
 62
     7
370
    15
100
AcDbLine
 10
247.4032706505
 20
-134.8259460503
 30
0.0
 11
244.7390026337
 21
-134.8259460503
 31
0.0
  0
LINE
  5
3BE
330
1F
100
AcDbEntity
  8
0
  6
Continuous
 62
     7
370
    15
100
AcDbLine
 10
257.6389974839
 20
-134.8259460503
 30
0.0
 11
247.4032706505
 21
-134.8259460503
 31
0.0
  0
LINE
  5
3BF
330
1F
100
AcDbEntity
  8
0
  6
Continuous
 62
     7
370
    15
100
AcDbLine
 10
-523.1836670154
 20
-133.8259440238
 30
0.0
 11
-511.3609809504
 21
-133.8259440238
 31
0.0
  0
LINE
  5
3C0
330
1F
100
AcDbEntity
  8
0
  6
Continuous
 62
     7
370
    15
100
AcDbLine
 10
-526.260980785
 20
-133.8259440238
 30
0.0
 11
-523.1836670154
 21
-133.8259440238
 31
0.0
  0
LINE
  5
3C1
330
1F
100
AcDbEntity
  8
0
  6
Continuous
 62
     7
370
    15
100
AcDbLine
 10
-522.5967293681
 20
-134.8259460503
 30
0.0
 11
-525.2609810868
 21
-134.8259460503
 31
0.0
  0
LINE
  5
3C2
330
1F
100
AcDbEntity
  8
0
  6
Continuous
 62
     7
370
    15
100
AcDbLine
 10
-512.3609806487
 20
-134.8259460503
 30
0.0
 11
-522.5967293681
 21
-134.8259460503
 31
0.0
  0
LINE
  5
3C3
330
1F
100
AcDbEntity
  8
0
  6
Continuous
 62
     7
370
    15
100
AcDbLine
 10
1016.8163842446
 20
-133.8259440238
 30
0.0
 11
1028.6389655358
 21
-133.8259440238
 31
0.0
  0
LINE
  5
3C4
330
1F
100
AcDbEntity
  8
0
  6
Continuous
 62
     7
370
    15
100
AcDbLine
 10
1013.7389964348
 20
-133.8259440238
 30
0.0
 11
1016.8163842446
 21
-133.8259440238
 31
0.0
  0
LINE
  5
3C5
330
1F
100
AcDbEntity
  8
0
  6
Continuous
 62
     7
370
    15
100
AcDbLine
 10
1017.4032515771
 20
-134.8259460503
 30
0.0
 11
1014.7390431649
 21
-134.8259460503
 31
0.0
  0
LINE
  5
3C6
330
1F
100
AcDbEntity
  8
0
  6
Continuous
 62
     7
370
    15
100
AcDbLine
 10
1027.639038015
 20
-134.8259460503
 30
0.0
 11
1017.4032515771
 21
-134.8259460503
 31
0.0
  0
SPLINE
  5
3C7
330
1F
100
AcDbEntity
  8
0
  6
Continuous
 62
     7
370
    15
100
AcDbSpline
210
0.0
220
0.0
230
1.0
 70
     8
 71
     3
 72
    18
 73
    14
 74
     0
 42
0.000000001
 43
0.00000001
 40
0.0
 40
0.0
 40
0.0
 40
0.0
 40
0.0952735649814915
 40
0.1902613833559399
 40
0.2925901955027461
 40
0.4072981557706554
 40
0.4942309499808115
 40
0.5813003177153182
 40
0.6673921573985742
 40
0.7685816001023646
 40
0.8837357997659048
 40
0.9914588706360621
 40
1.0
 40
1.0
 40
1.0
 40
1.0
 10
1028.689033437405
 20
-108.8259455138803
 30
0.0
 10
1028.6193660898
 20
-108.8683747312226
 30
0.0
 10
1028.480240342459
 20
-108.9531059112495
 30
0.0
 10
1027.411807155817
 20
-109.5650758920761
 30
0.0
 10
1025.765046480009
 20
-110.3759796091087
 30
0.0
 10
1023.646413716053
 20
-111.1132308963839
 30
0.0
 10
1021.332716667507
 20
-111.4025891763122
 30
0.0
 10
1019.225556943861
 20
-111.1991581562039
 30
0.0
 10
1017.243310518451
 20
-110.6238168002915
 30
0.0
 10
1015.424929844849
 20
-109.8126648089793
 30
0.0
 10
1014.141758576732
 20
-109.1004688566623
 30
0.0
 10
1013.584884664572
 20
-108.7639239996742
 30
0.0
 10
1013.707794191292
 20
-108.837105907222
 30
0.0
 10
1013.716823506985
 20
-108.8424820775152
 30
0.0
  0
SPLINE
  5
3C8
330
1F
100
AcDbEntity
  8
0
  6
Continuous
 62
     7
370
    15
100
AcDbSpline
210
0.0
220
0.0
230
1.0
 70
     8
 71
     3
 72
    18
 73
    14
 74
     0
 42
0.000000001
 43
0.00000001
 40
0.0
 40
0.0
 40
0.0
 40
0.0
 40
0.0952733050524234
 40
0.190261076533165
 40
0.2925893362938125
 40
0.4072973669743449
 40
0.494230435444289
 40
0.5813014888387522
 40
0.6673906402670401
 40
0.7685793579120582
 40
0.8837357548043406
 40
0.9914584493202396
 40
1.0
 40
1.0
 40
1.0
 40
1.0
 10
-511.3109810353481
 20
-108.8259455138803
 30
0.0
 10
-511.3806381349765
 20
-108.8683749598075
 30
0.0
 10
-511.5197435722883
 20
-108.9531066908457
 30
0.0
 10
-512.5881917742813
 20
-109.5650735778651
 30
0.0
 10
-514.2349310919626
 20
-110.3759825680699
 30
0.0
 10
-516.3535743164709
 20
-111.1132325920701
 30
0.0
 10
-518.6672867184179
 20
-111.402586979727
 30
0.0
 10
-520.7744523874928
 20
-111.1991704989139
 30
0.0
 10
-522.7566653137816
 20
-110.6238073227318
 30
0.0
 10
-524.5750400579217
 20
-109.8126529854233
 30
0.0
 10
-525.8581762440725
 20
-109.1004774523676
 30
0.0
 10
-526.4154875560803
 20
-108.763927005348
 30
0.0
 10
-526.2921792405498
 20
-108.8371058678179
 30
0.0
 10
-526.2831201852524
 20
-108.8424820775152
 30
0.0
  0
SPLINE
  5
3C9
330
1F
100
AcDbEntity
  8
0
  6
Continuous
 62
     7
370
    15
100
AcDbSpline
210
0.0
220
0.0
230
1.0
 70
     8
 71
     3
 72
    18
 73
    14
 74
     0
 42
0.000000001
 43
0.00000001
 40
0.0
 40
0.0
 40
0.0
 40
0.0
 40
0.0952730811646656
 40
0.1902607915772317
 40
0.2925894874184804
 40
0.4072973173108583
 40
0.4942300127143647
 40
0.5813017283373678
 40
0.6673912561220261
 40
0.7685787623158197
 40
0.8837353312114017
 40
0.9914582796449593
 40
1.0
 40
1.0
 40
1.0
 40
1.0
 10
258.6889929062463
 20
-108.8259455138803
 30
0.0
 10
258.6193503558931
 20
-108.8683749469016
 30
0.0
 10
258.4802738550003
 20
-108.9531067243788
 30
0.0
 10
257.4118216124793
 20
-109.5650759738955
 30
0.0
 10
255.7650671590358
 20
-110.37597919962
 30
0.0
 10
253.6464318966157
 20
-111.1132324654027
 30
0.0
 10
251.3327178269033
 20
-111.4025873349985
 30
0.0
 10
249.2255480860932
 20
-111.1991700209009
 30
0.0
 10
247.2433297088616
 20
-110.6238146051213
 30
0.0
 10
245.424971894795
 20
-109.8126454430235
 30
0.0
 10
244.1419157788207
 20
-109.1004778374857
 30
0.0
 10
243.5843658832452
 20
-108.7639280161722
 30
0.0
 10
243.7078314313249
 20
-108.837105855758
 30
0.0
 10
243.7169021851159
 20
-108.8424820775152
 30
0.0
  0
LINE
  5
3CA
330
1F
100
AcDbEntity
  8
0
  6
Continuous
 62
     7
370
    15
100
AcDbLine
 10
281.1890310532
 20
-86.8259456331
 30
0.0
 11
221.189028669
 21
-86.8259456331
 31
0.0
  0
LINE
  5
3CB
330
1F
100
AcDbEntity
  8
0
  6
Continuous
 62
     7
370
    15
100
AcDbLine
 10
221.189028669
 20
-88.8259457281
 30
0.0
 11
281.1890310532
 21
-88.8259457281
 31
0.0
  0
LINE
  5
3CC
330
1F
100
AcDbEntity
  8
0
  6
Continuous
 62
     7
370
    15
100
AcDbLine
 10
266.1890453583
 20
-90.8259458231
 30
0.0
 11
236.1890143639
 21
-90.8259458231
 31
0.0
  0
LINE
  5
3CD
330
1F
100
AcDbEntity
  8
0
  6
Continuous
 62
     7
370
    15
100
AcDbLine
 10
-548.8109801972
 20
-88.8259457281
 30
0.0
 11
-488.8109815383
 21
-88.8259457281
 31
0.0
  0
LINE
  5
3CE
330
1F
100
AcDbEntity
  8
0
  6
Continuous
 62
     7
370
    15
100
AcDbLine
 10
-488.8109815383
 20
-86.8259456331
 30
0.0
 11
-548.8109801972
 21
-86.8259456331
 31
0.0
  0
LINE
  5
3CF
330
1F
100
AcDbEntity
  8
0
  6
Continuous
 62
     7
370
    15
100
AcDbLine
 10
-503.810981203
 20
-90.8259458231
 30
0.0
 11
-533.8109805324
 21
-90.8259458231
 31
0.0
  0
LINE
  5
3D0
330
1F
100
AcDbEntity
  8
0
  6
Continuous
 62
     7
370
    15
100
AcDbLine
 10
1051.1890715844
 20
-86.8259456331
 30
0.0
 11
991.1890095955
 21
-86.8259456331
 31
0.0
  0
LINE
  5
3D1
330
1F
100
AcDbEntity
  8
0
  6
Continuous
 62
     7
370
    15
100
AcDbLine
 10
991.1890095955
 20
-88.8259457281
 30
0.0
 11
1051.1890715844
 21
-88.8259457281
 31
0.0
  0
LINE
  5
3D2
330
1F
100
AcDbEntity
  8
0
  6
Continuous
 62
     7
370
    15
100
AcDbLine
 10
1036.1889666802
 20
-90.8259458231
 30
0.0
 11
1006.1889952904
 21
-90.8259458231
 31
0.0
  0
LINE
  5
3D3
330
1F
100
AcDbEntity
  8
0
  6
Continuous
 62
     7
370
    15
100
AcDbLine
 10
1151.1889762169
 20
-109.8259456778
 30
0.0
 11
1151.1889762169
 21
-132.8259457225
 31
0.0
  0
LINE
  5
3D4
330
1F
100
AcDbEntity
  8
0
  6
Continuous
 62
     7
370
    15
100
AcDbLine
 10
1150.1890486962
 20
-133.8259440238
 30
0.0
 11
1150.1890486962
 21
-108.8259455139
 31
0.0
  0
LINE
  5
3D5
330
1F
100
AcDbEntity
  8
0
  6
Continuous
 62
     7
370
    15
100
AcDbLine
 10
-647.8109740728
 20
-108.8259455139
 30
0.0
 11
-647.8109740728
 21
-133.8259440238
 31
0.0
  0
LWPOLYLINE
  5
3D6
330
1F
100
AcDbEntity
  8
0
  6
Continuous
 62
     7
370
    15
100
AcDbPolyline
 90
       13
 70
   128
 43
0.0
 10
-526.329022281
 20
-133.8068407351
 10
-526.0917115101
 20
-133.6651716704
 10
-525.2351089456
 20
-133.1799302572
 10
-523.7319668831
 20
-132.4373644168
 10
-521.4679454529
 20
-131.6364717061
 10
-519.3882905022
 20
-131.3049618477
 10
-517.2334509279
 20
-131.4123768682
 10
-515.3508958482
 20
-131.8720218116
 10
-513.5267487803
 20
-132.6029386694
 10
-511.9902737514
 20
-133.3994504387
 10
-511.2914404907
 20
-133.807570892
 10
-511.2609806546
 20
-133.8259440238
 10
-511.2609806546
 20
-133.8259440238
  0
LWPOLYLINE
  5
3D7
330
1F
100
AcDbEntity
  8
0
  6
Continuous
 62
     7
370
    15
100
AcDbPolyline
 90
       13
 70
   128
 43
0.0
 10
243.6710066086
 20
-133.8068407351
 10
243.9082926995
 20
-133.6651716704
 10
244.7648710496
 20
-133.1799302572
 10
246.2680405861
 20
-132.4373644168
 10
248.5320634133
 20
-131.6364717061
 10
250.6117290742
 20
-131.3049618477
 10
252.7665561921
 20
-131.4123768682
 10
254.6491092927
 20
-131.8720218116
 10
256.4732498414
 20
-132.6029386694
 10
258.0097383744
 20
-133.3994504387
 10
258.7085432297
 20
-133.807570892
 10
258.7390012032
 20
-133.8259440238
 10
258.7390012032
 20
-133.8259440238
  0
LWPOLYLINE
  5
3D8
330
1F
100
AcDbEntity
  8
0
  6
Continuous
 62
     7
370
    15
100
AcDbPolyline
 90
       13
 70
   128
 43
0.0
 10
1013.6709279305
 20
-133.8068407351
 10
1013.908273626
 20
-133.6651716704
 10
1014.7649115807
 20
-133.1799302572
 10
1016.2680215127
 20
-132.4373644168
 10
1018.5320443398
 20
-131.6364717061
 10
1020.611650396
 20
-131.3049618477
 10
1022.7665967232
 20
-131.4123768682
 10
1024.6491498238
 20
-131.8720218116
 10
1026.4732903725
 20
-132.6029386694
 10
1028.0097789055
 20
-133.3994504387
 10
1028.7085837609
 20
-133.807570892
 10
1028.7389821297
 20
-133.8259440238
 10
1028.7389821297
 20
-133.8259440238
  0
LINE
  5
3D9
330
1F
100
AcDbEntity
  8
0
  6
Continuous
 62
     7
370
    15
100
AcDbLine
 10
-648.8109760993
 20
-132.8259457225
 30
0.0
 11
-648.8109760993
 21
-109.8259456778
 31
0.0
  0
LINE
  5
3DA
330
1F
100
AcDbEntity
  8
0
  6
Continuous
 62
     8
370
    15
100
AcDbLine
 10
1050.4890746361
 20
-137.6355227405
 30
0.0
 11
1050.4890746361
 21
-149.2759447867
 31
0.0
  0
LINE
  5
3DB
330
1F
100
AcDbEntity
  8
0
  6
Continuous
 62
     8
370
    15
100
AcDbLine
 10
1050.4890746361
 20
-137.3759445125
 30
0.0
 11
1050.4890746361
 21
-137.6355227405
 31
0.0
  0
LINE
  5
3DC
330
1F
100
AcDbEntity
  8
0
  6
Continuous
 62
     8
370
    15
100
AcDbLine
 10
-564.1109802836
 20
-138.4885918671
 30
0.0
 11
-564.1109802836
 21
-137.3759445125
 31
0.0
  0
LINE
  5
3DD
330
1F
100
AcDbEntity
  8
0
  6
Continuous
 62
     8
370
    15
100
AcDbLine
 10
-564.1109802836
 20
-149.2759447867
 30
0.0
 11
-564.1109802836
 21
-138.4885918671
 31
0.0
  0
LINE
  5
3DE
330
1F
100
AcDbEntity
  8
0
  6
Continuous
 62
     7
370
    15
100
AcDbLine
 10
-1174.6983671165
 20
2145.903894389
 30
0.0
 11
-1174.70867872
 21
2145.9142041299
 31
0.0
  0
LINE
  5
3DF
330
1F
100
AcDbEntity
  8
0
  6
Continuous
 62
     7
370
    15
100
AcDbLine
 10
-1177.2586771822
 20
2137.2642029914
 30
0.0
 11
-1177.0586812472
 21
2137.4642026517
 31
0.0
  0
LINE
  5
3E0
330
1F
100
AcDbEntity
  8
0
  6
Continuous
 62
     7
370
    15
100
AcDbLine
 10
-1177.0586812472
 20
2177.0642033684
 30
0.0
 11
-1177.2586771822
 21
2177.2642030287
 31
0.0
  0
LINE
  5
3E1
330
1F
100
AcDbEntity
  8
0
  6
Continuous
 62
     7
370
    15
100
AcDbLine
 10
-1177.2586771822
 20
2177.2642030287
 30
0.0
 11
-1180.0586798763
 21
2177.2642030287
 31
0.0
  0
LINE
  5
3E2
330
1F
100
AcDbEntity
  8
0
  6
Continuous
 62
     7
370
    15
100
AcDbLine
 10
-1180.0586798763
 20
2137.2642029914
 30
0.0
 11
-1177.2586771822
 21
2137.2642029914
 31
0.0
  0
LINE
  5
3E3
330
1F
100
AcDbEntity
  8
0
  6
Continuous
 62
     7
370
    15
100
AcDbLine
 10
-1180.0586798763
 20
2177.2642030287
 30
0.0
 11
-1182.0586764789
 21
2175.2642036322
 31
0.0
  0
LINE
  5
3E4
330
1F
100
AcDbEntity
  8
0
  6
Continuous
 62
     7
370
    15
100
AcDbLine
 10
-1182.0586764789
 20
2139.2642033192
 30
0.0
 11
-1180.0586798763
 21
2137.2642029914
 31
0.0
  0
LINE
  5
3E5
330
1F
100
AcDbEntity
  8
0
  6
Continuous
 62
     7
370
    15
100
AcDbLine
 10
-1129.858679471
 20
2177.2642030287
 30
0.0
 11
-1176.7586761689
 21
2177.2642030287
 31
0.0
  0
LINE
  5
3E6
330
1F
100
AcDbEntity
  8
0
  6
Continuous
 62
     7
370
    15
100
AcDbLine
 10
-1176.7586761689
 20
2137.2642029914
 30
0.0
 11
-1129.858679471
 21
2137.2642029914
 31
0.0
  0
LINE
  5
3E7
330
1F
100
AcDbEntity
  8
0
  6
Continuous
 62
     7
370
    15
100
AcDbLine
 10
-1129.858679471
 20
2137.2642029914
 30
0.0
 11
-1129.5586799806
 21
2137.5642024818
 31
0.0
  0
LINE
  5
3E8
330
1F
100
AcDbEntity
  8
0
  6
Continuous
 62
     7
370
    15
100
AcDbLine
 10
-1129.5586799806
 20
2176.9642035383
 30
0.0
 11
-1129.858679471
 21
2177.2642030287
 31
0.0
  0
LINE
  5
3E9
330
1F
100
AcDbEntity
  8
0
  6
Continuous
 62
     7
370
    15
100
AcDbLine
 10
-1176.7586761689
 20
2177.2642030287
 30
0.0
 11
-1177.0586812472
 21
2176.9642035383
 31
0.0
  0
LINE
  5
3EA
330
1F
100
AcDbEntity
  8
0
  6
Continuous
 62
     7
370
    15
100
AcDbLine
 10
-1177.0586812472
 20
2137.5642024818
 30
0.0
 11
-1176.7586761689
 21
2137.2642029914
 31
0.0
  0
LINE
  5
3EB
330
1F
100
AcDbEntity
  8
0
  6
Continuous
 62
     7
370
    15
100
AcDbLine
 10
-1133.058679623
 20
2185.635674456
 30
0.0
 11
-1131.0586792952
 21
2187.6356747839
 31
0.0
  0
LINE
  5
3EC
330
1F
100
AcDbEntity
  8
0
  6
Continuous
 62
     7
370
    15
100
AcDbLine
 10
-1131.0586792952
 20
2213.6356734577
 30
0.0
 11
-1133.058679623
 21
2215.6356737855
 31
0.0
  0
LINE
  5
3ED
330
1F
100
AcDbEntity
  8
0
  6
Continuous
 62
     7
370
    15
100
AcDbLine
 10
-1133.058679623
 20
2215.6356737855
 30
0.0
 11
-1134.0586797869
 21
2215.6356737855
 31
0.0
  0
LINE
  5
3EE
330
1F
100
AcDbEntity
  8
0
  6
Continuous
 62
     7
370
    15
100
AcDbLine
 10
-1134.0586797869
 20
2185.635674456
 30
0.0
 11
-1133.058679623
 21
2185.635674456
 31
0.0
  0
LINE
  5
3EF
330
1F
100
AcDbEntity
  8
0
  6
Continuous
 62
     7
370
    15
100
AcDbLine
 10
-1134.0586797869
 20
2210.3856743219
 30
0.0
 11
-1134.4286793447
 21
2210.3856743219
 31
0.0
  0
LINE
  5
3F0
330
1F
100
AcDbEntity
  8
0
  6
Continuous
 62
     7
370
    15
100
AcDbLine
 10
-1134.4286793447
 20
2190.8856739196
 30
0.0
 11
-1134.0586797869
 21
2190.8856739196
 31
0.0
  0
LINE
  5
3F1
330
1F
100
AcDbEntity
  8
0
  6
Continuous
 62
     7
370
    15
100
AcDbLine
 10
-1134.9286803579
 20
2210.2156744244
 30
0.0
 11
-1135.0586799508
 21
2210.0856729689
 31
0.0
  0
LINE
  5
3F2
330
1F
100
AcDbEntity
  8
0
  6
Continuous
 62
     7
370
    15
100
AcDbLine
 10
-1135.0586799508
 20
2191.18567341
 30
0.0
 11
-1134.9286803579
 21
2191.0556738171
 31
0.0
  0
LINE
  5
3F3
330
1F
100
AcDbEntity
  8
0
  6
Continuous
 62
     7
370
    15
100
AcDbLine
 10
-1160.7586809969
 20
2185.635674456
 30
0.0
 11
-1154.3586806929
 21
2185.635674456
 31
0.0
  0
LINE
  5
3F4
330
1F
100
AcDbEntity
  8
0
  6
Continuous
 62
     7
370
    15
100
AcDbLine
 10
-1154.3586806929
 20
2215.6356737855
 30
0.0
 11
-1160.7586809969
 21
2215.6356737855
 31
0.0
  0
LINE
  5
3F5
330
1F
100
AcDbEntity
  8
0
  6
Continuous
 62
     7
370
    15
100
AcDbLine
 10
-1154.3586806929
 20
2185.635674456
 30
0.0
 11
-1154.0586793399
 21
2185.9356739464
 31
0.0
  0
LINE
  5
3F6
330
1F
100
AcDbEntity
  8
0
  6
Continuous
 62
     7
370
    15
100
AcDbLine
 10
-1154.0586793399
 20
2215.3356724325
 30
0.0
 11
-1154.3586806929
 21
2215.6356737855
 31
0.0
  0
LINE
  5
3F7
330
1F
100
AcDbEntity
  8
0
  6
Continuous
 62
     7
370
    15
100
AcDbLine
 10
-1160.7586809969
 20
2215.6356737855
 30
0.0
 11
-1161.0586786246
 21
2215.3356724325
 31
0.0
  0
LINE
  5
3F8
330
1F
100
AcDbEntity
  8
0
  6
Continuous
 62
     7
370
    15
100
AcDbLine
 10
-1161.0586786246
 20
2185.9356739464
 30
0.0
 11
-1160.7586809969
 21
2185.635674456
 31
0.0
  0
LINE
  5
3F9
330
1F
100
AcDbEntity
  8
0
  6
Continuous
 62
     7
370
    15
100
AcDbLine
 10
-1153.1886787689
 20
2191.0556738171
 30
0.0
 11
-1153.0586810386
 21
2191.18567341
 31
0.0
  0
LINE
  5
3FA
330
1F
100
AcDbEntity
  8
0
  6
Continuous
 62
     7
370
    15
100
AcDbLine
 10
-1153.0586810386
 20
2210.0856729689
 30
0.0
 11
-1153.1886787689
 21
2210.2156744244
 31
0.0
  0
LINE
  5
3FB
330
1F
100
AcDbEntity
  8
0
  6
Continuous
 62
     7
370
    15
100
AcDbLine
 10
-1154.0586793399
 20
2190.8856739196
 30
0.0
 11
-1153.6886797822
 21
2190.8856739196
 31
0.0
  0
LINE
  5
3FC
330
1F
100
AcDbEntity
  8
0
  6
Continuous
 62
     7
370
    15
100
AcDbLine
 10
-1153.6886797822
 20
2210.3856743219
 30
0.0
 11
-1154.0586793399
 21
2210.3856743219
 31
0.0
  0
LINE
  5
3FD
330
1F
100
AcDbEntity
  8
0
  6
Continuous
 62
     7
370
    15
100
AcDbLine
 10
-1134.4286793447
 20
2229.5856752339
 30
0.0
 11
-1134.9286803579
 21
2229.5856752339
 31
0.0
  0
LINE
  5
3FE
330
1F
100
AcDbEntity
  8
0
  6
Continuous
 62
     7
370
    15
100
AcDbLine
 10
-1153.1886787689
 20
2229.5856752339
 30
0.0
 11
-1153.6886797822
 21
2229.5856752339
 31
0.0
  0
ARC
  5
3FF
330
1F
100
AcDbEntity
  8
0
  6
Continuous
 62
     7
370
    15
100
AcDbCircle
 10
-1147.0586795783
 20
2133.6356741273
 30
0.0
 40
0.9999999999997726
100
AcDbArc
 50
180.0
 51
270.0
  0
ARC
  5
400
330
1F
100
AcDbEntity
  8
0
  6
Continuous
 62
     7
370
    15
100
AcDbCircle
 10
-1137.0586795783
 20
2133.6356741273
 30
0.0
 40
1.000000000000227
100
AcDbArc
 50
270.0
 51
0.0
  0
LINE
  5
401
330
1F
100
AcDbEntity
  8
0
  6
Continuous
 62
     7
370
    15
100
AcDbLine
 10
-1147.0586800551
 20
2132.6356732192
 30
0.0
 11
-1137.0586802787
 21
2132.6356732192
 31
0.0
  0
LINE
  5
402
330
1F
100
AcDbEntity
  8
0
  6
Continuous
 62
     7
370
    15
100
AcDbLine
 10
-1158.5586810088
 20
2135.5356738809
 30
0.0
 11
-1148.5586793697
 21
2135.5356738809
 31
0.0
  0
LINE
  5
403
330
1F
100
AcDbEntity
  8
0
  6
Continuous
 62
     7
370
    15
100
AcDbLine
 10
-1165.0586792803
 20
2132.6356732192
 30
0.0
 11
-1160.0586803234
 21
2132.6356732192
 31
0.0
  0
ARC
  5
404
330
1F
100
AcDbEntity
  8
0
  6
Continuous
 62
     7
370
    15
100
AcDbCircle
 10
-1160.0586795783
 20
2133.6356741273
 30
0.0
 40
0.9999999999997726
100
AcDbArc
 50
270.0
 51
0.0
  0
ARC
  5
405
330
1F
100
AcDbEntity
  8
0
  6
Continuous
 62
     7
370
    15
100
AcDbCircle
 10
-1158.0586795783
 20
2135.8856741273
 30
0.0
 40
1.00000000000059
100
AcDbArc
 50
120.0
 51
180.0
  0
LINE
  5
406
330
1F
100
AcDbEntity
  8
0
  6
Continuous
 62
     7
370
    15
100
AcDbLine
 10
-1148.5586793697
 20
2136.8856743815
 30
0.0
 11
-1148.0586783564
 21
2136.8856743815
 31
0.0
  0
LINE
  5
407
330
1F
100
AcDbEntity
  8
0
  6
Continuous
 62
     7
370
    15
100
AcDbLine
 10
-1175.0586771941
 20
2127.6356742623
 30
0.0
 11
-1173.0586805916
 21
2125.6356739345
 31
0.0
  0
LINE
  5
408
330
1F
100
AcDbEntity
  8
0
  6
Continuous
 62
     7
370
    15
100
AcDbLine
 10
-1173.0586805916
 20
2125.6356739345
 30
0.0
 11
-1171.0586802638
 21
2125.6356739345
 31
0.0
  0
LINE
  5
409
330
1F
100
AcDbEntity
  8
0
  6
Continuous
 62
     7
370
    15
100
AcDbLine
 10
-1173.0586805916
 20
2215.6356737855
 30
0.0
 11
-1175.0586771941
 21
2213.6356734577
 31
0.0
  0
LINE
  5
40A
330
1F
100
AcDbEntity
  8
0
  6
Continuous
 62
     7
370
    15
100
AcDbLine
 10
-1175.0586771941
 20
2187.6356747839
 30
0.0
 11
-1173.0586805916
 21
2185.635674456
 31
0.0
  0
LINE
  5
40B
330
1F
100
AcDbEntity
  8
0
  6
Continuous
 62
     7
370
    15
100
AcDbLine
 10
-1173.0586805916
 20
2185.635674456
 30
0.0
 11
-1171.0586802638
 21
2185.635674456
 31
0.0
  0
LINE
  5
40C
330
1F
100
AcDbEntity
  8
0
  6
Continuous
 62
     7
370
    15
100
AcDbLine
 10
-1171.0586802638
 20
2215.6356737855
 30
0.0
 11
-1173.0586805916
 21
2215.6356737855
 31
0.0
  0
LINE
  5
40D
330
1F
100
AcDbEntity
  8
0
  6
Continuous
 62
     7
370
    15
100
AcDbLine
 10
-1161.2586782849
 20
2185.635674456
 30
0.0
 11
-1161.0586786246
 21
2185.8356741163
 31
0.0
  0
LINE
  5
40E
330
1F
100
AcDbEntity
  8
0
  6
Continuous
 62
     7
370
    15
100
AcDbLine
 10
-1161.0586786246
 20
2215.4356741252
 30
0.0
 11
-1161.2586782849
 21
2215.6356737855
 31
0.0
  0
LINE
  5
40F
330
1F
100
AcDbEntity
  8
0
  6
Continuous
 62
     7
370
    15
100
AcDbLine
 10
-1161.2586782849
 20
2215.6356737855
 30
0.0
 11
-1164.85867962
 21
2215.6356737855
 31
0.0
  0
LINE
  5
410
330
1F
100
AcDbEntity
  8
0
  6
Continuous
 62
     7
370
    15
100
AcDbLine
 10
-1164.85867962
 20
2185.635674456
 30
0.0
 11
-1161.2586782849
 21
2185.635674456
 31
0.0
  0
LINE
  5
411
330
1F
100
AcDbEntity
  8
0
  6
Continuous
 62
     7
370
    15
100
AcDbLine
 10
-1164.85867962
 20
2215.6356737855
 30
0.0
 11
-1165.0586792803
 21
2215.4356741252
 31
0.0
  0
LINE
  5
412
330
1F
100
AcDbEntity
  8
0
  6
Continuous
 62
     7
370
    15
100
AcDbLine
 10
-1165.0586792803
 20
2185.8356741163
 30
0.0
 11
-1164.85867962
 21
2185.635674456
 31
0.0
  0
LINE
  5
413
330
1F
100
AcDbEntity
  8
0
  6
Continuous
 62
     7
370
    15
100
AcDbLine
 10
-1153.0586810386
 20
2171.6356740239
 30
0.0
 11
-1152.8306522942
 21
2171.6356740239
 31
0.0
  0
LINE
  5
414
330
1F
100
AcDbEntity
  8
0
  6
Continuous
 62
     7
370
    15
100
AcDbLine
 10
-1152.0903551555
 20
2229.6356760803
 30
0.0
 11
-1153.0586810386
 21
2229.6356760803
 31
0.0
  0
LINE
  5
415
330
1F
100
AcDbEntity
  8
0
  6
Continuous
 62
     7
370
    15
100
AcDbLine
 10
-1135.0586799508
 20
2229.6356760803
 30
0.0
 11
-1136.0791077441
 21
2229.6356760803
 31
0.0
  0
LWPOLYLINE
  5
416
330
1F
100
AcDbEntity
  8
0
  6
Continuous
 62
     7
370
    15
100
AcDbPolyline
 90
        3
 70
   128
 43
0.0
 10
-1138.893814159
 20
2173.4068828541
 10
-1137.8594928956
 20
2172.8752504009
 10
-1136.0791077441
 20
2171.6356740239
  0
ARC
  5
417
330
1F
100
AcDbEntity
  8
0
  6
Continuous
 62
     7
370
    15
100
AcDbCircle
 10
-1144.0847310016
 20
2239.2356741273
 30
0.0
 40
12.50000000000006
100
AcDbArc
 50
230.1746287392
 51
309.8253712608
  0
LINE
  5
418
330
1F
100
AcDbEntity
  8
0
  6
Continuous
 62
     7
370
    15
100
AcDbLine
 10
-1173.0586805916
 20
2030.6356900278
 30
0.0
 11
-1175.0586771941
 21
2028.6356859746
 31
0.0
  0
LINE
  5
419
330
1F
100
AcDbEntity
  8
0
  6
Continuous
 62
     7
370
    15
100
AcDbLine
 10
-1175.0586771941
 20
2002.6356928888
 30
0.0
 11
-1173.0586805916
 21
2000.6356888357
 31
0.0
  0
LINE
  5
41A
330
1F
100
AcDbEntity
  8
0
  6
Continuous
 62
     7
370
    15
100
AcDbLine
 10
-1173.0586805916
 20
2000.6356888357
 30
0.0
 11
-1171.0586802638
 21
2000.6356888357
 31
0.0
  0
LINE
  5
41B
330
1F
100
AcDbEntity
  8
0
  6
Continuous
 62
     7
370
    15
100
AcDbLine
 10
-1171.0586802638
 20
2030.6356900278
 30
0.0
 11
-1173.0586805916
 21
2030.6356900278
 31
0.0
  0
LINE
  5
41C
330
1F
100
AcDbEntity
  8
0
  6
Continuous
 62
     7
370
    15
100
AcDbLine
 10
-1173.0586805916
 20
2085.6356897297
 30
0.0
 11
-1175.0586771941
 21
2083.6356931272
 31
0.0
  0
LINE
  5
41D
330
1F
100
AcDbEntity
  8
0
  6
Continuous
 62
     7
370
    15
100
AcDbLine
 10
-1175.0586771941
 20
2057.6356925908
 30
0.0
 11
-1173.0586805916
 21
2055.6356885376
 31
0.0
  0
LINE
  5
41E
330
1F
100
AcDbEntity
  8
0
  6
Continuous
 62
     7
370
    15
100
AcDbLine
 10
-1173.0586805916
 20
2055.6356885376
 30
0.0
 11
-1171.0586802638
 21
2055.6356885376
 31
0.0
  0
LINE
  5
41F
330
1F
100
AcDbEntity
  8
0
  6
Continuous
 62
     7
370
    15
100
AcDbLine
 10
-1171.0586802638
 20
2085.6356897297
 30
0.0
 11
-1173.0586805916
 21
2085.6356897297
 31
0.0
  0
LINE
  5
420
330
1F
100
AcDbEntity
  8
0
  6
Continuous
 62
     7
370
    15
100
AcDbLine
 10
-1166.4293029881
 20
1996.6356807294
 30
0.0
 11
-1165.0586792803
 21
1996.6356807294
 31
0.0
  0
LINE
  5
421
330
1F
100
AcDbEntity
  8
0
  6
Continuous
 62
     7
370
    15
100
AcDbLine
 10
-1171.0586802638
 20
1996.6356807294
 30
0.0
 11
-1169.7086797631
 21
1996.6356807294
 31
0.0
  0
LINE
  5
422
330
1F
100
AcDbEntity
  8
0
  6
Continuous
 62
     7
370
    15
100
AcDbLine
 10
-1165.0586792803
 20
2215.6356737855
 30
0.0
 11
-1171.0586802638
 21
2215.6356737855
 31
0.0
  0
ARC
  5
423
330
1F
100
AcDbEntity
  8
0
  6
Continuous
 62
     7
370
    15
100
AcDbCircle
 10
-1140.9964644091
 20
73.1356919845
 30
0.0
 40
1.500000000000256
100
AcDbArc
 50
181.0
 51
270.0
  0
ARC
  5
424
330
1F
100
AcDbEntity
  8
0
  6
Continuous
 62
     7
370
    15
100
AcDbCircle
 10
-1149.1208947475
 20
73.1356919845
 30
0.0
 40
1.500000000000249
100
AcDbArc
 50
270.0
 51
359.0
  0
LINE
  5
425
330
1F
100
AcDbEntity
  8
0
  6
Continuous
 62
     7
370
    15
100
AcDbLine
 10
-1142.4962350702
 20
73.1094830575
 30
0.0
 11
-1142.7240663743
 21
86.161946589
 31
0.0
  0
LINE
  5
426
330
1F
100
AcDbEntity
  8
0
  6
Continuous
 62
     7
370
    15
100
AcDbLine
 10
-1147.3932930803
 20
86.161946589
 30
0.0
 11
-1147.6211243844
 21
73.1094830575
 31
0.0
  0
ARC
  5
427
330
1F
100
AcDbEntity
  8
0
  6
Continuous
 62
     7
370
    15
100
AcDbCircle
 10
-1144.2238372373
 20
86.1356919845
 30
0.0
 40
1.500000000000057
100
AcDbArc
 50
1.0
 51
90.0
  0
ARC
  5
428
330
1F
100
AcDbEntity
  8
0
  6
Continuous
 62
     7
370
    15
100
AcDbCircle
 10
-1145.8935219193
 20
86.1356919845
 30
0.0
 40
1.500000000000249
100
AcDbArc
 50
90.0
 51
179.0
  0
LINE
  5
429
330
1F
100
AcDbEntity
  8
0
  6
Continuous
 62
     7
370
    15
100
AcDbLine
 10
-1123.0586798465
 20
2055.6356885376
 30
0.0
 11
-1121.0586795187
 21
2057.6356925908
 31
0.0
  0
LINE
  5
42A
330
1F
100
AcDbEntity
  8
0
  6
Continuous
 62
     7
370
    15
100
AcDbLine
 10
-1121.0586795187
 20
2083.6356931272
 30
0.0
 11
-1123.0586798465
 21
2085.6356897297
 31
0.0
  0
LINE
  5
42B
330
1F
100
AcDbEntity
  8
0
  6
Continuous
 62
     7
370
    15
100
AcDbLine
 10
-1123.0586798465
 20
2085.6356897297
 30
0.0
 11
-1125.058679243
 21
2085.6356897297
 31
0.0
  0
LINE
  5
42C
330
1F
100
AcDbEntity
  8
0
  6
Continuous
 62
     7
370
    15
100
AcDbLine
 10
-1125.058679243
 20
2055.6356885376
 30
0.0
 11
-1123.0586798465
 21
2055.6356885376
 31
0.0
  0
LINE
  5
42D
330
1F
100
AcDbEntity
  8
0
  6
Continuous
 62
     7
370
    15
100
AcDbLine
 10
-1123.0586798465
 20
2030.6356900278
 30
0.0
 11
-1125.058679243
 21
2030.6356900278
 31
0.0
  0
LINE
  5
42E
330
1F
100
AcDbEntity
  8
0
  6
Continuous
 62
     7
370
    15
100
AcDbLine
 10
-1125.058679243
 20
2000.6356888357
 30
0.0
 11
-1123.0586798465
 21
2000.6356888357
 31
0.0
  0
LINE
  5
42F
330
1F
100
AcDbEntity
  8
0
  6
Continuous
 62
     7
370
    15
100
AcDbLine
 10
-1123.0586798465
 20
2000.6356888357
 30
0.0
 11
-1121.0586795187
 21
2002.6356928888
 31
0.0
  0
LINE
  5
430
330
1F
100
AcDbEntity
  8
0
  6
Continuous
 62
     7
370
    15
100
AcDbLine
 10
-1121.0586795187
 20
2028.6356859746
 30
0.0
 11
-1123.0586798465
 21
2030.6356900278
 31
0.0
  0
LINE
  5
431
330
1F
100
AcDbEntity
  8
0
  6
Continuous
 62
     7
370
    15
100
AcDbLine
 10
-1154.5959854102
 20
2169.7142032812
 30
0.0
 11
-1154.6541446424
 21
2169.7142032812
 31
0.0
  0
LINE
  5
432
330
1F
100
AcDbEntity
  8
0
  6
Continuous
 62
     7
370
    15
100
AcDbLine
 10
-1154.7007442987
 20
2154.8142034466
 30
0.0
 11
-1154.5959854102
 21
2154.8142034466
 31
0.0
  0
LINE
  5
433
330
1F
100
AcDbEntity
  8
0
  6
Continuous
 62
     7
370
    15
100
AcDbLine
 10
-1114.0586797683
 20
2169.7642031963
 30
0.0
 11
-1129.5586799806
 21
2169.7642031963
 31
0.0
  0
LINE
  5
434
330
1F
100
AcDbEntity
  8
0
  6
Continuous
 62
     7
370
    15
100
AcDbLine
 10
-1129.5586799806
 20
2154.7642035316
 30
0.0
 11
-1114.0586797683
 21
2154.7642035316
 31
0.0
  0
LINE
  5
435
330
1F
100
AcDbEntity
  8
0
  6
Continuous
 62
     7
370
    15
100
AcDbLine
 10
-1112.0586796733
 20
2192.2642026934
 30
0.0
 11
-1114.0586797683
 21
2177.2642030287
 31
0.0
  0
LINE
  5
436
330
1F
100
AcDbEntity
  8
0
  6
Continuous
 62
     7
370
    15
100
AcDbLine
 10
-1114.0586797683
 20
2147.2642036992
 30
0.0
 11
-1112.0586796733
 21
2132.2642040345
 31
0.0
  0
LINE
  5
437
330
1F
100
AcDbEntity
  8
0
  6
Continuous
 62
     7
370
    15
100
AcDbLine
 10
-1110.0586795783
 20
2192.2642026934
 30
0.0
 11
-1112.0586796733
 21
2192.2642026934
 31
0.0
  0
LINE
  5
438
330
1F
100
AcDbEntity
  8
0
  6
Continuous
 62
     7
370
    15
100
AcDbLine
 10
-1112.0586796733
 20
2132.2642040345
 30
0.0
 11
-1110.0586795783
 21
2132.2642040345
 31
0.0
  0
CIRCLE
  5
439
330
1F
100
AcDbEntity
  8
0
  6
Continuous
 62
     7
370
    15
100
AcDbCircle
 10
-1166.5586795783
 20
2148.2642033639
 30
0.0
 40
8.174999999999862
  0
CIRCLE
  5
43A
330
1F
100
AcDbEntity
  8
0
  6
Continuous
 62
     7
370
    15
100
AcDbCircle
 10
-1166.5586795783
 20
2148.2642033639
 30
0.0
 40
1.000000000000045
  0
CIRCLE
  5
43B
330
1F
100
AcDbEntity
  8
0
  6
Continuous
 62
     7
370
    15
100
AcDbCircle
 10
-1166.5586795783
 20
2148.2642033639
 30
0.0
 40
8.475000000000119
  0
LINE
  5
43C
330
1F
100
AcDbEntity
  8
0
  6
Continuous
 62
     7
370
    15
100
AcDbLine
 10
-1177.2586771822
 20
2165.8650938793
 30
0.0
 11
-1177.2586771822
 21
2177.2642030287
 31
0.0
  0
LINE
  5
43D
330
1F
100
AcDbEntity
  8
0
  6
Continuous
 62
     7
370
    15
100
AcDbLine
 10
-1177.2586771822
 20
2137.2642029914
 30
0.0
 11
-1177.2586771822
 21
2165.8650938793
 31
0.0
  0
LINE
  5
43E
330
1F
100
AcDbEntity
  8
0
  6
Continuous
 62
     7
370
    15
100
AcDbLine
 10
-1177.0586812472
 20
2165.7790850754
 30
0.0
 11
-1177.0586812472
 21
2137.4642026517
 31
0.0
  0
LINE
  5
43F
330
1F
100
AcDbEntity
  8
0
  6
Continuous
 62
     7
370
    15
100
AcDbLine
 10
-1177.0586812472
 20
2177.0642033684
 30
0.0
 11
-1177.0586812472
 21
2165.7790850754
 31
0.0
  0
LINE
  5
440
330
1F
100
AcDbEntity
  8
0
  6
Continuous
 62
     7
370
    15
100
AcDbLine
 10
-1180.0586798763
 20
2165.8650938793
 30
0.0
 11
-1180.0586798763
 21
2137.2642029914
 31
0.0
  0
LINE
  5
441
330
1F
100
AcDbEntity
  8
0
  6
Continuous
 62
     7
370
    15
100
AcDbLine
 10
-1180.0586798763
 20
2177.2642030287
 30
0.0
 11
-1180.0586798763
 21
2165.8650938793
 31
0.0
  0
LINE
  5
442
330
1F
100
AcDbEntity
  8
0
  6
Continuous
 62
     7
370
    15
100
AcDbLine
 10
-1182.0586764789
 20
2165.0050049088
 30
0.0
 11
-1182.0586764789
 21
2175.2642036322
 31
0.0
  0
LINE
  5
443
330
1F
100
AcDbEntity
  8
0
  6
Continuous
 62
     7
370
    15
100
AcDbLine
 10
-1182.0586764789
 20
2139.2642033192
 30
0.0
 11
-1182.0586764789
 21
2165.0050049088
 31
0.0
  0
SPLINE
  5
444
330
1F
100
AcDbEntity
  8
0
  6
Continuous
 62
     7
370
    15
100
AcDbSpline
210
0.0
220
0.0
230
1.0
 70
    11
 71
     3
 72
    26
 73
    22
 74
     0
 42
0.000000001
 43
0.00000001
 40
0.0
 40
0.0
 40
0.0
 40
0.0
 40
0.0751735775364127
 40
0.1425848108175403
 40
0.1925179301878307
 40
0.233992400565307
 40
0.2756156815203668
 40
0.3140687618329899
 40
0.3554840688696791
 40
0.4049595504158767
 40
0.464867182670452
 40
0.5321666828382219
 40
0.5983300121412399
 40
0.6571680577686032
 40
0.7090972794210886
 40
0.7570957379414454
 40
0.803516200041805
 40
0.8499286995863857
 40
0.8977196211150565
 40
0.9485264397424544
 40
1.0
 40
1.0
 40
1.0
 40
1.0
 10
-1149.308680889609
 20
2147.26420369921
 30
0.0
 10
-1149.360061719076
 20
2146.862931250217
 30
0.0
 10
-1149.457517847804
 20
2146.101821321689
 30
0.0
 10
-1150.103086238235
 20
2145.252404365403
 30
0.0
 10
-1150.863667107682
 20
2144.742036429744
 30
0.0
 10
-1151.64934386005
 20
2144.507478330594
 30
0.0
 10
-1152.421841125225
 20
2144.503634065652
 30
0.0
 10
-1153.143569902734
 20
2144.703435511575
 30
0.0
 10
-1153.794865643006
 20
2145.085283011575
 30
0.0
 10
-1154.37051306905
 20
2145.689157067162
 30
0.0
 10
-1154.777633809449
 20
2146.546308742044
 30
0.0
 10
-1154.862310177257
 20
2147.595881851036
 30
0.0
 10
-1154.521360858917
 20
2148.642761271382
 30
0.0
 10
-1153.825262084493
 20
2149.452309495477
 30
0.0
 10
-1152.952705279718
 20
2149.920899571272
 30
0.0
 10
-1152.037696475072
 20
2150.062095195742
 30
0.0
 10
-1151.161390953876
 20
2149.911814223997
 30
0.0
 10
-1150.387488805847
 20
2149.504744581669
 30
0.0
 10
-1149.779960640133
 20
2148.880157262532
 30
0.0
 10
-1149.381181357626
 20
2148.100731530672
 30
0.0
 10
-1149.33295250977
 20
2147.544255488322
 30
0.0
 10
-1149.308680889609
 20
2147.26420369921
 30
0.0
  0
LINE
  5
445
330
1F
100
AcDbEntity
  8
0
  6
Continuous
 62
     7
370
    15
100
AcDbLine
 10
-1129.858679471
 20
2157.2642034757
 30
0.0
 11
-1129.858679471
 21
2177.2642030287
 31
0.0
  0
LINE
  5
446
330
1F
100
AcDbEntity
  8
0
  6
Continuous
 62
     7
370
    15
100
AcDbLine
 10
-1129.858679471
 20
2137.2642029914
 30
0.0
 11
-1129.858679471
 21
2157.2642034757
 31
0.0
  0
LINE
  5
447
330
1F
100
AcDbEntity
  8
0
  6
Continuous
 62
     7
370
    15
100
AcDbLine
 10
-1176.7586761689
 20
2157.2642034757
 30
0.0
 11
-1176.7586761689
 21
2137.2642029914
 31
0.0
  0
LINE
  5
448
330
1F
100
AcDbEntity
  8
0
  6
Continuous
 62
     7
370
    15
100
AcDbLine
 10
-1176.7586761689
 20
2177.2642030287
 30
0.0
 11
-1176.7586761689
 21
2157.2642034757
 31
0.0
  0
SPLINE
  5
449
330
1F
100
AcDbEntity
  8
0
  6
Continuous
 62
     7
370
    15
100
AcDbSpline
210
0.0
220
0.0
230
1.0
 70
    11
 71
     3
 72
    30
 73
    26
 74
     0
 42
0.000000001
 43
0.00000001
 40
0.0
 40
0.0
 40
0.0
 40
0.0
 40
0.0308938826327745
 40
0.0618245761767324
 40
0.1230503726456945
 40
0.1604571859786508
 40
0.197802263735062
 40
0.2302283377701021
 40
0.2630177267568077
 40
0.291011842994172
 40
0.3237656342296555
 40
0.3801489396081612
 40
0.4196769744597855
 40
0.4591881169156504
 40
0.5212145372053557
 40
0.5725881308942278
 40
0.6241659672595317
 40
0.6710346847124827
 40
0.7175562594075822
 40
0.765416552746567
 40
0.8138865162182869
 40
0.8623880551549009
 40
0.910415841114343
 40
0.9570796303583052
 40
1.0
 40
1.0
 40
1.0
 40
1.0
 10
-1158.058679995539
 20
2148.2642029318
 30
0.0
 10
-1158.08907999854
 20
2147.730307719463
 30
0.0
 10
-1158.149916226982
 20
2146.661881143954
 30
0.0
 10
-1158.727673837766
 20
2144.725241507771
 30
0.0
 10
-1159.771967052071
 20
2142.980170650696
 30
0.0
 10
-1161.264520114725
 20
2141.537118218494
 30
0.0
 10
-1162.697550360151
 20
2140.628887382189
 30
0.0
 10
-1164.326684963439
 20
2139.998485761885
 30
0.0
 10
-1166.1112415792
 20
2139.709828237786
 30
0.0
 10
-1167.981527981289
 20
2139.822335639216
 30
0.0
 10
-1170.023243201505
 20
2140.387778948358
 30
0.0
 10
-1171.784278458956
 20
2141.440640100746
 30
0.0
 10
-1173.245841015793
 20
2142.912139908645
 30
0.0
 10
-1174.423002111822
 20
2144.75220278119
 30
0.0
 10
-1175.16025921128
 20
2147.183416599421
 30
0.0
 10
-1175.01055383814
 20
2150.162965368065
 30
0.0
 10
-1173.908445384925
 20
2152.851301300994
 30
0.0
 10
-1171.990422024319
 20
2154.99617955848
 30
0.0
 10
-1169.54148952309
 20
2156.387688528406
 30
0.0
 10
-1166.739692616349
 20
2156.92252014086
 30
0.0
 10
-1163.878358768776
 20
2156.501511678082
 30
0.0
 10
-1161.310550413858
 20
2155.155071663985
 30
0.0
 10
-1159.376808277406
 20
2153.077134591239
 30
0.0
 10
-1158.239579503562
 20
2150.636751149875
 30
0.0
 10
-1158.117276285331
 20
2149.032709847332
 30
0.0
 10
-1158.058679995539
 20
2148.2642029318
 30
0.0
  0
SPLINE
  5
44A
330
1F
100
AcDbEntity
  8
0
  6
Continuous
 62
     7
370
    15
100
AcDbSpline
210
0.0
220
0.0
230
1.0
 70
     8
 71
     3
 72
    10
 73
     6
 74
     0
 42
0.000000001
 43
0.00000001
 40
0.0
 40
0.0
 40
0.0
 40
0.0
 40
0.4392645012227361
 40
0.8783122440733732
 40
1.0
 40
1.0
 40
1.0
 40
1.0
 10
-1131.95867962897
 20
2162.264203363934
 30
0.0
 10
-1132.070989018586
 20
2161.059357567138
 30
0.0
 10
-1132.295552377904
 20
2158.650260513768
 30
0.0
 10
-1133.421036967465
 20
2155.93117109749
 30
0.0
 10
-1134.497701693901
 20
2154.801322810136
 30
0.0
 10
-1134.731353593471
 20
2154.556129304597
 30
0.0
  0
LWPOLYLINE
  5
44B
330
1F
100
AcDbEntity
  8
0
  6
Continuous
 62
     7
370
    15
100
AcDbPolyline
 90
       25
 70
   128
 43
0.0
 10
-1150.1685449457
 20
2151.1543604451
 10
-1151.8455886817
 20
2151.9850517529
 10
-1153.4616643167
 20
2153.3496656361
 10
-1154.8331783688
 20
2154.9707336257
 10
-1155.9115493274
 20
2156.8029906507
 10
-1156.6704878187
 20
2158.790857708
 10
-1157.0531533635
 20
2160.6478688213
 10
-1157.1562693989
 20
2162.5107270106
 10
-1156.6242010868
 20
2165.8950738515
 10
-1155.139482913
 20
2169.1057399753
 10
-1153.5777331865
 20
2171.0636873635
 10
-1151.6887949383
 20
2172.6527294981
 10
-1150.1530924416
 20
2173.5548802557
 10
-1148.4351934469
 20
2174.253058331
 10
-1146.1701163626
 20
2174.7607334423
 10
-1144.099193958
 20
2174.8558224085
 10
-1142.0785257196
 20
2174.6176990586
 10
-1139.2105457908
 20
2173.6728601995
 10
-1137.1127565926
 20
2172.4305354896
 10
-1135.3205548203
 20
2170.8325787353
 10
-1133.7950484431
 20
2168.8127226102
 10
-1132.6676526642
 20
2166.4311566296
 10
-1132.1453129476
 20
2164.4152348767
 10
-1131.958679629
 20
2162.2642033639
 10
-1131.958679629
 20
2162.2642033639
  0
LINE
  5
44C
330
1F
100
AcDbEntity
  8
0
  6
Continuous
 62
     7
370
    15
100
AcDbLine
 10
-1129.5586799806
 20
2157.2642034757
 30
0.0
 11
-1129.5586799806
 21
2137.5642024818
 31
0.0
  0
LINE
  5
44D
330
1F
100
AcDbEntity
  8
0
  6
Continuous
 62
     7
370
    15
100
AcDbLine
 10
-1129.5586799806
 20
2176.9642035383
 30
0.0
 11
-1129.5586799806
 21
2157.2642034757
 31
0.0
  0
CIRCLE
  5
44E
330
1F
100
AcDbEntity
  8
0
  6
Continuous
 62
     7
370
    15
100
AcDbCircle
 10
-1152.0586795783
 20
2147.2642033639
 30
0.0
 40
2.524999999999864
  0
CIRCLE
  5
44F
330
1F
100
AcDbEntity
  8
0
  6
Continuous
 62
     7
370
    15
100
AcDbCircle
 10
-1152.0586795783
 20
2147.2642033639
 30
0.0
 40
2.099999999999909
  0
LINE
  5
450
330
1F
100
AcDbEntity
  8
0
  6
Continuous
 62
     7
370
    15
100
AcDbLine
 10
-1131.0586792952
 20
2213.6356734577
 30
0.0
 11
-1131.0586792952
 21
2187.6356747839
 31
0.0
  0
LINE
  5
451
330
1F
100
AcDbEntity
  8
0
  6
Continuous
 62
     7
370
    15
100
AcDbLine
 10
-1133.058679623
 20
2185.635674456
 30
0.0
 11
-1133.058679623
 21
2215.6356737855
 31
0.0
  0
LINE
  5
452
330
1F
100
AcDbEntity
  8
0
  6
Continuous
 62
     7
370
    15
100
AcDbLine
 10
-1134.0586797869
 20
2203.4268730226
 30
0.0
 11
-1134.0586797869
 21
2185.635674456
 31
0.0
  0
LINE
  5
453
330
1F
100
AcDbEntity
  8
0
  6
Continuous
 62
     7
370
    15
100
AcDbLine
 10
-1134.0586797869
 20
2215.6356737855
 30
0.0
 11
-1134.0586797869
 21
2203.4268730226
 31
0.0
  0
LINE
  5
454
330
1F
100
AcDbEntity
  8
0
  6
Continuous
 62
     7
370
    15
100
AcDbLine
 10
-1154.3586806929
 20
2185.635674456
 30
0.0
 11
-1154.3586806929
 21
2215.6356737855
 31
0.0
  0
LINE
  5
455
330
1F
100
AcDbEntity
  8
0
  6
Continuous
 62
     7
370
    15
100
AcDbLine
 10
-1160.7586809969
 20
2215.6356737855
 30
0.0
 11
-1160.7586809969
 21
2185.635674456
 31
0.0
  0
LINE
  5
456
330
1F
100
AcDbEntity
  8
0
  6
Continuous
 62
     7
370
    15
100
AcDbLine
 10
-1154.0586793399
 20
2215.3356724325
 30
0.0
 11
-1154.0586793399
 21
2185.9356739464
 31
0.0
  0
LINE
  5
457
330
1F
100
AcDbEntity
  8
0
  6
Continuous
 62
     7
370
    15
100
AcDbLine
 10
-1134.4286793447
 20
2177.2642030287
 30
0.0
 11
-1134.4286793447
 21
2229.5856752339
 31
0.0
  0
LINE
  5
458
330
1F
100
AcDbEntity
  8
0
  6
Continuous
 62
     7
370
    15
100
AcDbLine
 10
-1134.9286803579
 20
2177.2642030287
 30
0.0
 11
-1134.9286803579
 21
2229.5856752339
 31
0.0
  0
LINE
  5
459
330
1F
100
AcDbEntity
  8
0
  6
Continuous
 62
     7
370
    15
100
AcDbLine
 10
-1153.1886787689
 20
2229.5856752339
 30
0.0
 11
-1153.1886787689
 21
2177.2642030287
 31
0.0
  0
LINE
  5
45A
330
1F
100
AcDbEntity
  8
0
  6
Continuous
 62
     7
370
    15
100
AcDbLine
 10
-1153.6886797822
 20
2229.5856752339
 30
0.0
 11
-1153.6886797822
 21
2177.2642030287
 31
0.0
  0
LINE
  5
45B
330
1F
100
AcDbEntity
  8
0
  6
Continuous
 62
     7
370
    15
100
AcDbLine
 10
-1148.0586783564
 20
2133.6356733832
 30
0.0
 11
-1148.0586783564
 21
2137.2642029914
 31
0.0
  0
LINE
  5
45C
330
1F
100
AcDbEntity
  8
0
  6
Continuous
 62
     7
370
    15
100
AcDbLine
 10
-1136.0586801147
 20
2137.2642029914
 30
0.0
 11
-1136.0586801147
 21
2133.6356733832
 31
0.0
  0
LINE
  5
45D
330
1F
100
AcDbEntity
  8
0
  6
Continuous
 62
     7
370
    15
100
AcDbLine
 10
-1158.5586810088
 20
2137.2642029914
 30
0.0
 11
-1158.5586810088
 21
2135.5356738809
 31
0.0
  0
LINE
  5
45E
330
1F
100
AcDbEntity
  8
0
  6
Continuous
 62
     7
370
    15
100
AcDbLine
 10
-1148.5586793697
 20
2137.2642029914
 30
0.0
 11
-1148.5586793697
 21
2135.5356738809
 31
0.0
  0
LINE
  5
45F
330
1F
100
AcDbEntity
  8
0
  6
Continuous
 62
     7
370
    15
100
AcDbLine
 10
-1159.0586782968
 20
2137.2642029914
 30
0.0
 11
-1159.0586782968
 21
2133.6356733832
 31
0.0
  0
LINE
  5
460
330
1F
100
AcDbEntity
  8
0
  6
Continuous
 62
     7
370
    15
100
AcDbLine
 10
-1173.0586805916
 20
2137.2642029914
 30
0.0
 11
-1173.0586805916
 21
2125.6356739345
 31
0.0
  0
LINE
  5
461
330
1F
100
AcDbEntity
  8
0
  6
Continuous
 62
     7
370
    15
100
AcDbLine
 10
-1175.0586771941
 20
2127.6356742623
 30
0.0
 11
-1175.0586771941
 21
2137.2642029914
 31
0.0
  0
LINE
  5
462
330
1F
100
AcDbEntity
  8
0
  6
Continuous
 62
     7
370
    15
100
AcDbLine
 10
-1165.0586792803
 20
75.6357663217
 30
0.0
 11
-1165.0586792803
 21
2125.6356925609
 31
0.0
  0
LINE
  5
463
330
1F
100
AcDbEntity
  8
0
  6
Continuous
 62
     7
370
    15
100
AcDbLine
 10
-1165.0586792803
 20
2125.6356925609
 30
0.0
 11
-1125.058679243
 21
2125.6356925609
 31
0.0
  0
LINE
  5
464
330
1F
100
AcDbEntity
  8
0
  6
Continuous
 62
     7
370
    15
100
AcDbLine
 10
-1125.058679243
 20
75.6357663217
 30
0.0
 11
-1125.058679243
 21
2125.6356925609
 31
0.0
  0
LINE
  5
465
330
1F
100
AcDbEntity
  8
0
  6
Continuous
 62
     7
370
    15
100
AcDbLine
 10
-1141.5586800849
 20
75.6357663217
 30
0.0
 11
-1125.058679243
 21
75.6357663217
 31
0.0
  0
LINE
  5
466
330
1F
100
AcDbEntity
  8
0
  6
Continuous
 62
     7
370
    15
100
AcDbLine
 10
-1141.5586800849
 20
95.6357472482
 30
0.0
 11
-1141.5586800849
 21
75.6357663217
 31
0.0
  0
LINE
  5
467
330
1F
100
AcDbEntity
  8
0
  6
Continuous
 62
     7
370
    15
100
AcDbLine
 10
-1141.5586800849
 20
95.6357472482
 30
0.0
 11
-1148.5586793697
 21
95.6357472482
 31
0.0
  0
LINE
  5
468
330
1F
100
AcDbEntity
  8
0
  6
Continuous
 62
     7
370
    15
100
AcDbLine
 10
-1148.5586793697
 20
95.6357472482
 30
0.0
 11
-1148.5586793697
 21
75.6357663217
 31
0.0
  0
LINE
  5
469
330
1F
100
AcDbEntity
  8
0
  6
Continuous
 62
     7
370
    15
100
AcDbLine
 10
-1165.0586792803
 20
75.6357663217
 30
0.0
 11
-1148.5586793697
 21
75.6357663217
 31
0.0
  0
LINE
  5
46A
330
1F
100
AcDbEntity
  8
0
  6
Continuous
 62
     7
370
    15
100
AcDbLine
 10
-1173.0586805916
 20
2215.6356737855
 30
0.0
 11
-1173.0586805916
 21
2185.635674456
 31
0.0
  0
LINE
  5
46B
330
1F
100
AcDbEntity
  8
0
  6
Continuous
 62
     7
370
    15
100
AcDbLine
 10
-1175.0586771941
 20
2187.6356747839
 30
0.0
 11
-1175.0586771941
 21
2213.6356734577
 31
0.0
  0
LINE
  5
46C
330
1F
100
AcDbEntity
  8
0
  6
Continuous
 62
     7
370
    15
100
AcDbLine
 10
-1171.0586802638
 20
2215.6356737855
 30
0.0
 11
-1171.0586802638
 21
2200.6356731894
 31
0.0
  0
LINE
  5
46D
330
1F
100
AcDbEntity
  8
0
  6
Continuous
 62
     7
370
    15
100
AcDbLine
 10
-1161.2586782849
 20
2185.635674456
 30
0.0
 11
-1161.2586782849
 21
2215.6356737855
 31
0.0
  0
LINE
  5
46E
330
1F
100
AcDbEntity
  8
0
  6
Continuous
 62
     7
370
    15
100
AcDbLine
 10
-1161.0586786246
 20
2215.4356741252
 30
0.0
 11
-1161.0586786246
 21
2185.8356741163
 31
0.0
  0
LINE
  5
46F
330
1F
100
AcDbEntity
  8
0
  6
Continuous
 62
     7
370
    15
100
AcDbLine
 10
-1164.85867962
 20
2215.6356737855
 30
0.0
 11
-1164.85867962
 21
2185.635674456
 31
0.0
  0
LINE
  5
470
330
1F
100
AcDbEntity
  8
0
  6
Continuous
 62
     7
370
    15
100
AcDbLine
 10
-1153.0586810386
 20
2229.6356760803
 30
0.0
 11
-1153.0586810386
 21
2177.2642030287
 31
0.0
  0
LINE
  5
471
330
1F
100
AcDbEntity
  8
0
  6
Continuous
 62
     7
370
    15
100
AcDbLine
 10
-1152.0903551555
 20
2172.2403687331
 30
0.0
 11
-1152.0903551555
 21
2172.289086217
 31
0.0
  0
LINE
  5
472
330
1F
100
AcDbEntity
  8
0
  6
Continuous
 62
     7
370
    15
100
AcDbLine
 10
-1152.0903551555
 20
2177.2642030287
 30
0.0
 11
-1152.0903551555
 21
2229.6356760803
 31
0.0
  0
LINE
  5
473
330
1F
100
AcDbEntity
  8
0
  6
Continuous
 62
     7
370
    15
100
AcDbLine
 10
-1136.0791077441
 20
2219.1593476477
 30
0.0
 11
-1136.0791077441
 21
2177.2642030287
 31
0.0
  0
LINE
  5
474
330
1F
100
AcDbEntity
  8
0
  6
Continuous
 62
     7
370
    15
100
AcDbLine
 10
-1136.0791077441
 20
2229.6356760803
 30
0.0
 11
-1136.0791077441
 21
2219.1593476477
 31
0.0
  0
LINE
  5
475
330
1F
100
AcDbEntity
  8
0
  6
Continuous
 62
     7
370
    15
100
AcDbLine
 10
-1135.0586799508
 20
2229.6356760803
 30
0.0
 11
-1135.0586799508
 21
2177.2642030287
 31
0.0
  0
LINE
  5
476
330
1F
100
AcDbEntity
  8
0
  6
Continuous
 62
     7
370
    15
100
AcDbLine
 10
-1173.0586805916
 20
2030.6356900278
 30
0.0
 11
-1173.0586805916
 21
2000.6356888357
 31
0.0
  0
LINE
  5
477
330
1F
100
AcDbEntity
  8
0
  6
Continuous
 62
     7
370
    15
100
AcDbLine
 10
-1175.0586771941
 20
2002.6356928888
 30
0.0
 11
-1175.0586771941
 21
2028.6356859746
 31
0.0
  0
LINE
  5
478
330
1F
100
AcDbEntity
  8
0
  6
Continuous
 62
     7
370
    15
100
AcDbLine
 10
-1171.0586802638
 20
2016.8594174924
 30
0.0
 11
-1171.0586802638
 21
2014.411961371
 31
0.0
  0
LINE
  5
479
330
1F
100
AcDbEntity
  8
0
  6
Continuous
 62
     7
370
    15
100
AcDbLine
 10
-1173.0586805916
 20
2085.6356897297
 30
0.0
 11
-1173.0586805916
 21
2055.6356885376
 31
0.0
  0
LINE
  5
47A
330
1F
100
AcDbEntity
  8
0
  6
Continuous
 62
     7
370
    15
100
AcDbLine
 10
-1175.0586771941
 20
2057.6356925908
 30
0.0
 11
-1175.0586771941
 21
2083.6356931272
 31
0.0
  0
LINE
  5
47B
330
1F
100
AcDbEntity
  8
0
  6
Continuous
 62
     7
370
    15
100
AcDbLine
 10
-1171.0586802638
 20
2071.8594171944
 30
0.0
 11
-1171.0586802638
 21
2069.4119685235
 31
0.0
  0
LINE
  5
47C
330
1F
100
AcDbEntity
  8
0
  6
Continuous
 62
     7
370
    15
100
AcDbLine
 10
-1165.0586792803
 20
2011.6356813255
 30
0.0
 11
-1171.0586802638
 21
2011.6356813255
 31
0.0
  0
LINE
  5
47D
330
1F
100
AcDbEntity
  8
0
  6
Continuous
 62
     7
370
    15
100
AcDbLine
 10
-1171.0586802638
 20
2011.6356813255
 30
0.0
 11
-1171.0586802638
 21
1996.6356807294
 31
0.0
  0
SPLINE
  5
47E
330
1F
100
AcDbEntity
  8
0
  6
Continuous
 62
     7
370
    15
100
AcDbSpline
210
0.0
220
0.0
230
1.0
 70
     8
 71
     3
 72
    17
 73
    13
 74
     0
 42
0.000000001
 43
0.00000001
 40
0.0
 40
0.0
 40
0.0
 40
0.0
 40
0.1069331801662957
 40
0.2138500385054762
 40
0.321165273210036
 40
0.4287541500990384
 40
0.5359040699722951
 40
0.6425865569674525
 40
0.7495040811534673
 40
0.8569865764445839
 40
0.9644936399791364
 40
1.0
 40
1.0
 40
1.0
 40
1.0
 10
-1169.708679763081
 20
1996.635680729428
 30
0.0
 10
-1169.690548331218
 20
1996.637723750959
 30
0.0
 10
-1169.654288234999
 20
1996.641809482185
 30
0.0
 10
-1169.371788662549
 20
1996.670382398877
 30
0.0
 10
-1168.954835007885
 20
1996.702301981578
 30
0.0
 10
-1168.432569372195
 20
1996.72546373611
 30
0.0
 10
-1167.869488204738
 20
1996.729000927081
 30
0.0
 10
-1167.329860693136
 20
1996.711793367991
 30
0.0
 10
-1166.868339299506
 20
1996.680947972086
 30
0.0
 10
-1166.551919275626
 20
1996.651420030579
 30
0.0
 10
-1166.400494075422
 20
1996.634805596394
 30
0.0
 10
-1166.423573093007
 20
1996.637297284844
 30
0.0
 10
-1166.429302988055
 20
1996.637915903607
 30
0.0
  0
LINE
  5
47F
330
1F
100
AcDbEntity
  8
0
  6
Continuous
 62
     7
370
    15
100
AcDbLine
 10
-1165.0586792803
 20
2200.6356731894
 30
0.0
 11
-1171.0586802638
 21
2200.6356731894
 31
0.0
  0
LINE
  5
480
330
1F
100
AcDbEntity
  8
0
  6
Continuous
 62
     7
370
    15
100
AcDbLine
 10
-1165.0586792803
 20
2200.6356731894
 30
0.0
 11
-1165.0586792803
 21
2177.2642030287
 31
0.0
  0
LINE
  5
481
330
1F
100
AcDbEntity
  8
0
  6
Continuous
 62
     7
370
    15
100
AcDbLine
 10
-1165.0586792803
 20
2137.2642029914
 30
0.0
 11
-1165.0586792803
 21
2125.6356925609
 31
0.0
  0
LINE
  5
482
330
1F
100
AcDbEntity
  8
0
  6
Continuous
 62
     7
370
    15
100
AcDbLine
 10
-1171.0586802638
 20
2200.6356731894
 30
0.0
 11
-1171.0586802638
 21
2177.2642030287
 31
0.0
  0
LINE
  5
483
330
1F
100
AcDbEntity
  8
0
  6
Continuous
 62
     7
370
    15
100
AcDbLine
 10
-1171.0586802638
 20
2137.2642029914
 30
0.0
 11
-1171.0586802638
 21
2071.8594171944
 31
0.0
  0
LINE
  5
484
330
1F
100
AcDbEntity
  8
0
  6
Continuous
 62
     7
370
    15
100
AcDbLine
 10
-1171.0586802638
 20
2069.4119685235
 30
0.0
 11
-1171.0586802638
 21
2016.8594174924
 31
0.0
  0
LINE
  5
485
330
1F
100
AcDbEntity
  8
0
  6
Continuous
 62
     7
370
    15
100
AcDbLine
 10
-1171.0586802638
 20
2014.411961371
 30
0.0
 11
-1171.0586802638
 21
2011.6356813255
 31
0.0
  0
LINE
  5
486
330
1F
100
AcDbEntity
  8
0
  6
Continuous
 62
     7
370
    15
100
AcDbLine
 10
-1165.0586792803
 20
2215.6356737855
 30
0.0
 11
-1165.0586792803
 21
2200.6356731894
 31
0.0
  0
LINE
  5
487
330
1F
100
AcDbEntity
  8
0
  6
Continuous
 62
     7
370
    15
100
AcDbLine
 10
-1133.5586787736
 20
67.6356308999
 30
0.0
 11
-1133.5586787736
 21
71.6355794015
 31
0.0
  0
LINE
  5
488
330
1F
100
AcDbEntity
  8
0
  6
Continuous
 62
     7
370
    15
100
AcDbLine
 10
-1156.558680681
 20
67.6356308999
 30
0.0
 11
-1133.5586787736
 21
67.6356308999
 31
0.0
  0
LINE
  5
489
330
1F
100
AcDbEntity
  8
0
  6
Continuous
 62
     7
370
    15
100
AcDbLine
 10
-1156.558680681
 20
71.6355794015
 30
0.0
 11
-1156.558680681
 21
67.6356308999
 31
0.0
  0
LINE
  5
48A
330
1F
100
AcDbEntity
  8
0
  6
Continuous
 62
     7
370
    15
100
AcDbLine
 10
-1156.558680681
 20
71.6355794015
 30
0.0
 11
-1133.5586787736
 21
71.6355794015
 31
0.0
  0
LINE
  5
48B
330
1F
100
AcDbEntity
  8
0
  6
Continuous
 62
     7
370
    15
100
AcDbLine
 10
-1131.0586792952
 20
71.6355794015
 30
0.0
 11
-1131.0586792952
 21
67.6356308999
 31
0.0
  0
LINE
  5
48C
330
1F
100
AcDbEntity
  8
0
  6
Continuous
 62
     7
370
    15
100
AcDbLine
 10
-1131.0586792952
 20
67.6356308999
 30
0.0
 11
-1133.5586787736
 21
67.6356308999
 31
0.0
  0
LINE
  5
48D
330
1F
100
AcDbEntity
  8
0
  6
Continuous
 62
     7
370
    15
100
AcDbLine
 10
-1133.5586787736
 20
71.6355794015
 30
0.0
 11
-1131.0586792952
 21
71.6355794015
 31
0.0
  0
LINE
  5
48E
330
1F
100
AcDbEntity
  8
0
  6
Continuous
 62
     7
370
    15
100
AcDbLine
 10
-1159.0586782968
 20
67.6356308999
 30
0.0
 11
-1159.0586782968
 21
71.6355794015
 31
0.0
  0
LINE
  5
48F
330
1F
100
AcDbEntity
  8
0
  6
Continuous
 62
     7
370
    15
100
AcDbLine
 10
-1156.558680681
 20
67.6356308999
 30
0.0
 11
-1159.0586782968
 21
67.6356308999
 31
0.0
  0
LINE
  5
490
330
1F
100
AcDbEntity
  8
0
  6
Continuous
 62
     7
370
    15
100
AcDbLine
 10
-1159.0586782968
 20
71.6355794015
 30
0.0
 11
-1156.558680681
 21
71.6355794015
 31
0.0
  0
LINE
  5
491
330
1F
100
AcDbEntity
  8
0
  6
Continuous
 62
     7
370
    15
100
AcDbLine
 10
-1146.0042999661
 20
73.1094830575
 30
0.0
 11
-1144.1130594885
 21
73.1094830575
 31
0.0
  0
ARC
  5
492
330
1F
100
AcDbEntity
  8
0
  6
Continuous
 62
     7
370
    15
100
AcDbCircle
 10
-1142.6352623723
 20
73.113215487
 30
0.0
 40
1.477801829656611
100
AcDbArc
 50
180.1447099855
 51
269.1418706041
  0
ARC
  5
493
330
1F
100
AcDbEntity
  8
0
  6
Continuous
 62
     7
370
    15
100
AcDbCircle
 10
-1147.4820971787
 20
73.1132155262
 30
0.0
 40
1.477801926159615
100
AcDbArc
 50
270.8582775272
 51
359.8552885016
  0
LINE
  5
494
330
1F
100
AcDbEntity
  8
0
  6
Continuous
 62
     7
370
    15
100
AcDbLine
 10
-1145.7831704593
 20
86.161946589
 30
0.0
 11
-1146.0042999661
 21
73.1094830575
 31
0.0
  0
SPLINE
  5
495
330
1F
100
AcDbEntity
  8
0
  6
Continuous
 62
     7
370
    15
100
AcDbSpline
210
0.0
220
0.0
230
1.0
 70
     8
 71
     3
 72
    15
 73
    11
 74
     0
 42
0.000000001
 43
0.00000001
 40
0.0
 40
0.0
 40
0.0
 40
0.0
 40
0.1416494495298136
 40
0.272183735083346
 40
0.3916187006460293
 40
0.5000023219355014
 40
0.6083766032001805
 40
0.7278098664760286
 40
0.8583481829632152
 40
1.0
 40
1.0
 40
1.0
 40
1.0
 10
-1144.334188995364
 20
86.16194658903153
 30
0.0
 10
-1144.366721770964
 20
86.16817245453467
 30
0.0
 10
-1144.429234490956
 20
86.18013564487659
 30
0.0
 10
-1144.621556964152
 20
86.1931185174638
 30
0.0
 10
-1144.836575255545
 20
86.20087753670869
 30
0.0
 10
-1145.058673584064
 20
86.20394274286691
 30
0.0
 10
-1145.280770620357
 20
86.20087740608918
 30
0.0
 10
-1145.495781782858
 20
86.19311821683584
 30
0.0
 10
-1145.688113459498
 20
86.1801358093326
 30
0.0
 10
-1145.750633891334
 20
86.16817248300524
 30
0.0
 10
-1145.783170459273
 20
86.16194658903153
 30
0.0
  0
LINE
  5
496
330
1F
100
AcDbEntity
  8
0
  6
Continuous
 62
     7
370
    15
100
AcDbLine
 10
-1144.3341889954
 20
86.161946589
 30
0.0
 11
-1144.1130594885
 21
73.1094830575
 31
0.0
  0
SPLINE
  5
497
330
1F
100
AcDbEntity
  8
0
  6
Continuous
 62
     7
370
    15
100
AcDbSpline
210
0.0
220
0.0
230
1.0
 70
     8
 71
     3
 72
    12
 73
     8
 74
     0
 42
0.000000001
 43
0.00000001
 40
0.0
 40
0.0
 40
0.0
 40
0.0
 40
0.0631756655239048
 40
0.1343773362772125
 40
0.2518919371238068
 40
0.4992458265685845
 40
1.0
 40
1.0
 40
1.0
 40
1.0
 10
-1144.334188995364
 20
86.16194658903153
 30
0.0
 10
-1144.338367822444
 20
86.25527869385219
 30
0.0
 10
-1144.347256365954
 20
86.45380006328973
 30
0.0
 10
-1144.399801055843
 20
86.76448292641336
 30
0.0
 10
-1144.515420497944
 20
87.15281798827435
 30
0.0
 10
-1144.76470387939
 20
87.5690087451988
 30
0.0
 10
-1144.940804730014
 20
87.60890610189142
 30
0.0
 10
-1145.058679727318
 20
87.63561182645829
 30
0.0
  0
SPLINE
  5
498
330
1F
100
AcDbEntity
  8
0
  6
Continuous
 62
     7
370
    15
100
AcDbSpline
210
0.0
220
0.0
230
1.0
 70
     8
 71
     3
 72
    13
 73
     9
 74
     0
 42
0.000000001
 43
0.00000001
 40
0.0
 40
0.0
 40
0.0
 40
0.0
 40
0.5005441579654757
 40
0.7471628653476863
 40
0.8581029049025103
 40
0.9218263637925899
 40
0.9619416701467608
 40
1.0
 40
1.0
 40
1.0
 40
1.0
 10
-1145.058679727318
 20
87.63561182645829
 30
0.0
 10
-1145.176667782548
 20
87.60899622004969
 30
0.0
 10
-1145.352788694198
 20
87.5692670724193
 30
0.0
 10
-1145.599297963198
 20
87.15629122907065
 30
0.0
 10
-1145.712156886958
 20
86.78542789997911
 30
0.0
 10
-1145.757239936725
 20
86.52896590279613
 30
0.0
 10
-1145.777514599323
 20
86.33344380996877
 30
0.0
 10
-1145.781318536855
 20
86.21810065769719
 30
0.0
 10
-1145.783170459273
 20
86.16194658903153
 30
0.0
  0
LINE
  5
499
330
1F
100
AcDbEntity
  8
0
  6
Continuous
 62
     7
370
    15
100
AcDbLine
 10
-1145.0586797273
 20
87.6356118265
 30
0.0
 11
-1144.2238384461
 21
87.6356118265
 31
0.0
  0
LINE
  5
49A
330
1F
100
AcDbEntity
  8
0
  6
Continuous
 62
     7
370
    15
100
AcDbLine
 10
-1145.8935210085
 20
87.6356118265
 30
0.0
 11
-1145.0586797273
 21
87.6356118265
 31
0.0
  0
LINE
  5
49B
330
1F
100
AcDbEntity
  8
0
  6
Continuous
 62
     7
370
    15
100
AcDbLine
 10
-1123.0586798465
 20
2055.6356885376
 30
0.0
 11
-1123.0586798465
 21
2085.6356897297
 31
0.0
  0
LINE
  5
49C
330
1F
100
AcDbEntity
  8
0
  6
Continuous
 62
     7
370
    15
100
AcDbLine
 10
-1121.0586795187
 20
2083.6356931272
 30
0.0
 11
-1121.0586795187
 21
2057.6356925908
 31
0.0
  0
LINE
  5
49D
330
1F
100
AcDbEntity
  8
0
  6
Continuous
 62
     7
370
    15
100
AcDbLine
 10
-1123.0586798465
 20
2028.3195280376
 30
0.0
 11
-1123.0586798465
 21
2030.6356900278
 31
0.0
  0
LINE
  5
49E
330
1F
100
AcDbEntity
  8
0
  6
Continuous
 62
     7
370
    15
100
AcDbLine
 10
-1123.0586798465
 20
2000.6356888357
 30
0.0
 11
-1123.0586798465
 21
2028.3195280376
 31
0.0
  0
LINE
  5
49F
330
1F
100
AcDbEntity
  8
0
  6
Continuous
 62
     7
370
    15
100
AcDbLine
 10
-1121.0586795187
 20
2026.6283505502
 30
0.0
 11
-1121.0586795187
 21
2002.6356928888
 31
0.0
  0
LINE
  5
4A0
330
1F
100
AcDbEntity
  8
0
  6
Continuous
 62
     7
370
    15
100
AcDbLine
 10
-1121.0586795187
 20
2028.6356859746
 30
0.0
 11
-1121.0586795187
 21
2026.6283505502
 31
0.0
  0
LINE
  5
4A1
330
1F
100
AcDbEntity
  8
0
  6
Continuous
 62
     7
370
    15
100
AcDbLine
 10
-1114.0586797683
 20
2147.2642036992
 30
0.0
 11
-1114.0586797683
 21
2177.2642030287
 31
0.0
  0
LINE
  5
4A2
330
1F
100
AcDbEntity
  8
0
  6
Continuous
 62
     7
370
    15
100
AcDbLine
 10
-1112.0586796733
 20
2192.2642026934
 30
0.0
 11
-1112.0586796733
 21
2132.2642040345
 31
0.0
  0
LINE
  5
4A3
330
1F
100
AcDbEntity
  8
0
  6
Continuous
 62
     7
370
    15
100
AcDbLine
 10
-1110.0586795783
 20
2132.2642040345
 30
0.0
 11
-1110.0586795783
 21
2192.2642026934
 31
0.0
  0
CIRCLE
  5
4A4
330
1F
100
AcDbEntity
  8
0
  6
Continuous
 62
     7
370
    15
100
AcDbCircle
 10
-1144.5586795783
 20
2162.2642033639
 30
0.0
 40
11.5
  0
CIRCLE
  5
4A5
330
1F
100
AcDbEntity
  8
0
  6
Continuous
 62
     7
370
    15
100
AcDbCircle
 10
-1144.5586795783
 20
2162.2642033639
 30
0.0
 40
12.5
  0
LINE
  5
4A6
330
1F
100
AcDbEntity
  8
0
  6
Continuous
 62
     8
370
    15
100
AcDbLine
 10
-1147.0586800551
 20
2137.2642029914
 30
0.0
 11
-1147.0586800551
 21
2132.6356732192
 31
0.0
  0
LINE
  5
4A7
330
1F
100
AcDbEntity
  8
0
  6
Continuous
 62
     8
370
    15
100
AcDbLine
 10
-1137.0586802787
 20
2132.6356732192
 30
0.0
 11
-1137.0586802787
 21
2137.2642029914
 31
0.0
  0
LINE
  5
4A8
330
1F
100
AcDbEntity
  8
0
  6
Continuous
 62
     8
370
    15
100
AcDbLine
 10
-1160.0586803234
 20
2132.6356732192
 30
0.0
 11
-1160.0586803234
 21
2137.2642029914
 31
0.0
  0
LINE
  5
4A9
330
1F
100
AcDbEntity
  8
0
  6
Continuous
 62
     8
370
    15
100
AcDbLine
 10
-1144.1130594885
 20
73.1094830575
 30
0.0
 11
-1142.4962350702
 21
73.1094830575
 31
0.0
  0
LINE
  5
4AA
330
1F
100
AcDbEntity
  8
0
  6
Continuous
 62
     8
370
    15
100
AcDbLine
 10
-1147.6211243844
 20
73.1094830575
 30
0.0
 11
-1146.0042999661
 21
73.1094830575
 31
0.0
  0
LINE
  5
4AB
330
1F
100
AcDbEntity
  8
0
  6
Continuous
 62
     8
370
    15
100
AcDbLine
 10
-1142.7240663743
 20
86.161946589
 30
0.0
 11
-1144.3341889954
 21
86.161946589
 31
0.0
  0
LINE
  5
4AC
330
1F
100
AcDbEntity
  8
0
  6
Continuous
 62
     8
370
    15
100
AcDbLine
 10
-1145.7831704593
 20
86.161946589
 30
0.0
 11
-1147.3932930803
 21
86.161946589
 31
0.0
  0
ENDSEC
  0
SECTION
  2
OBJECTS
  0
DICTIONARY
  5
C
330
0
100
AcDbDictionary
281
     1
  3
ACAD_GROUP
350
D
  3
ACAD_LAYOUT
350
1A
  3
ACAD_MLINESTYLE
350
17
  3
ACAD_PLOTSETTINGS
350
19
  3
ACAD_PLOTSTYLENAME
350
E
  3
ACAD_SCALELIST
350
47
  0
DICTIONARY
  5
D
102
{ACAD_REACTORS
330
C
102
}
330
C
100
AcDbDictionary
281
     1
  0
DICTIONARY
  5
1A
102
{ACAD_REACTORS
330
C
102
}
330
C
100
AcDbDictionary
281
     1
  3
Layout1
350
1E
  3
Layout2
350
26
  3
Model
350
22
  0
DICTIONARY
  5
17
102
{ACAD_REACTORS
330
C
102
}
330
C
100
AcDbDictionary
281
     1
  3
Standard
350
18
  0
DICTIONARY
  5
19
102
{ACAD_REACTORS
330
C
102
}
330
C
100
AcDbDictionary
281
     1
  0
ACDBDICTIONARYWDFLT
  5
E
102
{ACAD_REACTORS
330
C
102
}
330
C
100
AcDbDictionary
281
     1
  3
Normal
350
F
100
AcDbDictionaryWithDefault
340
F
  0
DICTIONARY
  5
47
102
{ACAD_REACTORS
330
C
102
}
330
C
100
AcDbDictionary
281
     1
  3
A0
350
48
  3
A1
350
49
  3
A2
350
4A
  3
A3
350
4B
  3
A4
350
4C
  3
A5
350
4D
  3
A6
350
4E
  3
A7
350
4F
  3
A8
350
50
  3
A9
350
51
  3
B0
350
52
  3
B1
350
53
  3
B2
350
54
  3
B3
350
55
  3
B4
350
56
  3
B5
350
57
  3
B6
350
58
  3
B7
350
59
  3
B8
350
5A
  3
B9
350
5B
  3
C0
350
5C
  3
C1
350
5D
  3
C2
350
5E
  3
C3
350
5F
  3
C4
350
60
  3
C5
350
61
  3
C6
350
62
  3
C7
350
63
  3
C8
350
64
  3
C9
350
65
  3
D0
350
66
  3
D1
350
67
  3
D2
350
68
  0
LAYOUT
  5
1E
102
{ACAD_REACTORS
330
1A
102
}
330
1A
100
AcDbPlotSettings
  1

  2
none_device
  4

  6

 40
0.0
 41
0.0
 42
0.0
 43
0.0
 44
0.0
 45
0.0
 46
0.0
 47
0.0
 48
0.0
 49
0.0
140
0.0
141
0.0
142
1.0
143
1.0
 70
   688
 72
     1
 73
     0
 74
     5
  7

 75
    16
147
1.0
148
0.0
149
0.0
100
AcDbLayout
  1
Layout1
 70
     1
 71
     1
 10
0.0
 20
0.0
 11
420.0
 21
297.0
 12
0.0
 22
0.0
 32
0.0
 14
1.0000000000E+20
 24
1.0000000000E+20
 34
1.0000000000E+20
 15
-1.0000000000E+20
 25
-1.0000000000E+20
 35
-1.0000000000E+20
146
0.0
 13
0.0
 23
0.0
 33
0.0
 16
1.0
 26
0.0
 36
0.0
 17
0.0
 27
1.0
 37
0.0
 76
     0
330
1B
  0
LAYOUT
  5
26
102
{ACAD_REACTORS
330
1A
102
}
330
1A
100
AcDbPlotSettings
  1

  2
none_device
  4

  6

 40
0.0
 41
0.0
 42
0.0
 43
0.0
 44
0.0
 45
0.0
 46
0.0
 47
0.0
 48
0.0
 49
0.0
140
0.0
141
0.0
142
1.0
143
1.0
 70
   688
 72
     1
 73
     0
 74
     5
  7

 75
    16
147
1.0
148
0.0
149
0.0
100
AcDbLayout
  1
Layout2
 70
     1
 71
     2
 10
0.0
 20
0.0
 11
0.0
 21
0.0
 12
0.0
 22
0.0
 32
0.0
 14
0.0
 24
0.0
 34
0.0
 15
0.0
 25
0.0
 35
0.0
146
0.0
 13
0.0
 23
0.0
 33
0.0
 16
1.0
 26
0.0
 36
0.0
 17
0.0
 27
1.0
 37
0.0
 76
     0
330
23
  0
LAYOUT
  5
22
102
{ACAD_REACTORS
330
1A
102
}
330
1A
100
AcDbPlotSettings
  1

  2
none_device
  4
Letter_(8.50_x_11.00_Inches)
  6

 40
6.35
 41
6.35
 42
6.35000508
 43
6.35000508
 44
215.9
 45
279.4
 46
0.0
 47
0.0
 48
0.0
 49
0.0
140
0.0
141
0.0
142
1.0
143
1.0
 70
  1712
 72
     1
 73
     0
 74
     0
  7

 75
     0
147
1.0
148
0.0
149
0.0
100
AcDbLayout
  1
Model
 70
     1
 71
     0
 10
0.0
 20
0.0
 11
431.8
 21
279.4
 12
0.0
 22
0.0
 32
0.0
 14
0.0
 24
0.0
 34
0.0
 15
431.8
 25
279.4
 35
0.0
146
0.0
 13
0.0
 23
0.0
 33
0.0
 16
1.0
 26
0.0
 36
0.0
 17
0.0
 27
1.0
 37
0.0
 76
     0
330
1F
331
29
  0
MLINESTYLE
  5
18
102
{ACAD_REACTORS
330
17
102
}
330
17
100
AcDbMlineStyle
  2
Standard
 70
     0
  3

 62
   256
 51
90.0
 52
90.0
 71
     2
 49
0.5
 62
   256
  6
BYLAYER
 49
-0.5
 62
   256
  6
BYLAYER
  0
ACDBPLACEHOLDER
  5
F
102
{ACAD_REACTORS
330
E
102
}
330
E
  0
SCALE
  5
48
102
{ACAD_REACTORS
330
47
102
}
330
47
100
AcDbScale
 70
     0
300
1:1
140
1.0
141
1.0
290
     1
  0
SCALE
  5
49
102
{ACAD_REACTORS
330
47
102
}
330
47
100
AcDbScale
 70
     0
300
1:2
140
1.0
141
2.0
290
     0
  0
SCALE
  5
4A
102
{ACAD_REACTORS
330
47
102
}
330
47
100
AcDbScale
 70
     0
300
1:4
140
1.0
141
4.0
290
     0
  0
SCALE
  5
4B
102
{ACAD_REACTORS
330
47
102
}
330
47
100
AcDbScale
 70
     0
300
1:5
140
1.0
141
5.0
290
     0
  0
SCALE
  5
4C
102
{ACAD_REACTORS
330
47
102
}
330
47
100
AcDbScale
 70
     0
300
1:8
140
1.0
141
8.0
290
     0
  0
SCALE
  5
4D
102
{ACAD_REACTORS
330
47
102
}
330
47
100
AcDbScale
 70
     0
300
1:10
140
1.0
141
10.0
290
     0
  0
SCALE
  5
4E
102
{ACAD_REACTORS
330
47
102
}
330
47
100
AcDbScale
 70
     0
300
1:16
140
1.0
141
16.0
290
     0
  0
SCALE
  5
4F
102
{ACAD_REACTORS
330
47
102
}
330
47
100
AcDbScale
 70
     0
300
1:20
140
1.0
141
20.0
290
     0
  0
SCALE
  5
50
102
{ACAD_REACTORS
330
47
102
}
330
47
100
AcDbScale
 70
     0
300
1:30
140
1.0
141
30.0
290
     0
  0
SCALE
  5
51
102
{ACAD_REACTORS
330
47
102
}
330
47
100
AcDbScale
 70
     0
300
1:40
140
1.0
141
40.0
290
     0
  0
SCALE
  5
52
102
{ACAD_REACTORS
330
47
102
}
330
47
100
AcDbScale
 70
     0
300
1:50
140
1.0
141
50.0
290
     0
  0
SCALE
  5
53
102
{ACAD_REACTORS
330
47
102
}
330
47
100
AcDbScale
 70
     0
300
1:100
140
1.0
141
100.0
290
     0
  0
SCALE
  5
54
102
{ACAD_REACTORS
330
47
102
}
330
47
100
AcDbScale
 70
     0
300
2:1
140
2.0
141
1.0
290
     0
  0
SCALE
  5
55
102
{ACAD_REACTORS
330
47
102
}
330
47
100
AcDbScale
 70
     0
300
4:1
140
4.0
141
1.0
290
     0
  0
SCALE
  5
56
102
{ACAD_REACTORS
330
47
102
}
330
47
100
AcDbScale
 70
     0
300
8:1
140
8.0
141
1.0
290
     0
  0
SCALE
  5
57
102
{ACAD_REACTORS
330
47
102
}
330
47
100
AcDbScale
 70
     0
300
10:1
140
10.0
141
1.0
290
     0
  0
SCALE
  5
58
102
{ACAD_REACTORS
330
47
102
}
330
47
100
AcDbScale
 70
     0
300
100:1
140
100.0
141
1.0
290
     0
  0
SCALE
  5
59
102
{ACAD_REACTORS
330
47
102
}
330
47
100
AcDbScale
 70
     0
300
1/128" = 1'-0"
140
0.0078125
141
12.0
290
     0
  0
SCALE
  5
5A
102
{ACAD_REACTORS
330
47
102
}
330
47
100
AcDbScale
 70
     0
300
1/64" = 1'-0"
140
0.015625
141
12.0
290
     0
  0
SCALE
  5
5B
102
{ACAD_REACTORS
330
47
102
}
330
47
100
AcDbScale
 70
     0
300
1/32" = 1'-0"
140
0.03125
141
12.0
290
     0
  0
SCALE
  5
5C
102
{ACAD_REACTORS
330
47
102
}
330
47
100
AcDbScale
 70
     0
300
1/16" = 1'-0"
140
0.0625
141
12.0
290
     0
  0
SCALE
  5
5D
102
{ACAD_REACTORS
330
47
102
}
330
47
100
AcDbScale
 70
     0
300
3/32" = 1'-0"
140
0.09375
141
12.0
290
     0
  0
SCALE
  5
5E
102
{ACAD_REACTORS
330
47
102
}
330
47
100
AcDbScale
 70
     0
300
1/8" = 1'-0"
140
0.125
141
12.0
290
     0
  0
SCALE
  5
5F
102
{ACAD_REACTORS
330
47
102
}
330
47
100
AcDbScale
 70
     0
300
3/16" = 1'-0"
140
0.1875
141
12.0
290
     0
  0
SCALE
  5
60
102
{ACAD_REACTORS
330
47
102
}
330
47
100
AcDbScale
 70
     0
300
1/4" = 1'-0"
140
0.25
141
12.0
290
     0
  0
SCALE
  5
61
102
{ACAD_REACTORS
330
47
102
}
330
47
100
AcDbScale
 70
     0
300
3/8" = 1'-0"
140
0.375
141
12.0
290
     0
  0
SCALE
  5
62
102
{ACAD_REACTORS
330
47
102
}
330
47
100
AcDbScale
 70
     0
300
1/2" = 1'-0"
140
0.5
141
12.0
290
     0
  0
SCALE
  5
63
102
{ACAD_REACTORS
330
47
102
}
330
47
100
AcDbScale
 70
     0
300
3/4" = 1'-0"
140
0.75
141
12.0
290
     0
  0
SCALE
  5
64
102
{ACAD_REACTORS
330
47
102
}
330
47
100
AcDbScale
 70
     0
300
1" = 1'-0"
140
1.0
141
12.0
290
     0
  0
SCALE
  5
65
102
{ACAD_REACTORS
330
47
102
}
330
47
100
AcDbScale
 70
     0
300
1-1/2" = 1'-0"
140
1.5
141
12.0
290
     0
  0
SCALE
  5
66
102
{ACAD_REACTORS
330
47
102
}
330
47
100
AcDbScale
 70
     0
300
3" = 1'-0"
140
3.0
141
12.0
290
     0
  0
SCALE
  5
67
102
{ACAD_REACTORS
330
47
102
}
330
47
100
AcDbScale
 70
     0
300
6" = 1'-0"
140
6.0
141
12.0
290
     0
  0
SCALE
  5
68
102
{ACAD_REACTORS
330
47
102
}
330
47
100
AcDbScale
 70
     0
300
1'-0" = 1'-0"
140
12.0
141
12.0
290
     0
  0
ENDSEC
  0
EOF
